Cifra Club

Aprenda

Agora Vai Sentar

MCs Jhowzinho e Kadinho

Cifra: Principal (violão e guitarra)
tom: F#
[Intro]

  D#m
E|-----6-6--6-----6-6--6--|
B|-----7-7--7-----7-7--7--|
G|-----8-8--8-----8-8--8--|
D|------------------------|
A|--6----------6----------|
E|------------------------|

  G#m
E|----------------------6-4-------|
B|-----4-4--4-----4-4-------7-6-4-|
G|-----4-4--4-----4-4-------------|
D|-----6-6--6-----6-6-------------|
A|--------------------------------|
E|--4----------4------------------|


 D#m
Você vai sentar por cima                 
G#m
 E o DJ vai te pegar
D#m
 Tu pediu agora toma
                   G#m
Não adianta tu voltar menina, agora você vai sentar

  D#m
Dou tapinha na potranca
                  G#m
Com o bumbum ela balança
Yuri chama de malandra
                     D#m
Ela vai se apaixonar, ah, ah , ah,

E|-----------------------|
B|-----4-4--4------------|
G|-----4-4--4------------|
D|-----6-6--6--8-6-------|
A|-----------------9-8-6-|
E|--4--------------------|         
Aaahh....Agora vai sentar

D#m                    G#m
Vai sentar, vai sentar
        D#m
Vai sentar, vai sentar
        G#m
Vai sentar
Composição de MC Jhowzinho / MC Kadinho
Colaboração e revisão:
105.799 exibições
    • ½ Tom
    • A
    • Bb
    • B
    • C
    • Db
    • D
    • Eb
    • E
    • F
    • F#
    • G
    • Ab
  • Adicionar à lista

    0 comentários

    Ver todos os comentários

    Conseguiu tocar?

    10 Tocaram 8 Ainda não

    Grave um vídeo tocando Agora Vai Sentar e nos envie!

    00:00 / 00:00
    outros vídeos desta música
    repetir qualidade Automático
    Outros vídeos desta música
    00:00 / 00:00
    Automático

    Cifra Club Pro

    Aproveite o Cifra Club com benefícios exclusivos e sem anúncios
    Cifra Club Pro
    Aproveite o Cifra Club com benefícios exclusivos e sem anúncios
    OK