Baile De Favela

MC João

Composição de: MC João
tom: Bb
Riff 1

E|-15 16 15 16 14 15 16 17 18 16 20h20 14 15------------|
B|---------------------------------------------------------------------|
G|-0-3-3-3-2-0-----------------------------------------------------|
D|---------------------------------------------------------------------|
A|---------------------------------------------------------------------|
E|---------------------------------------------------------------------|

Riff 2

E|----------------------------------------------------------------|
B|----------------------------------------------------------------|
G|-0-3-3-3-5-5------------------------------------------------|
D|----------------------------------------------------------------|
A|----------------------------------------------------------------|
E|----------------------------------------------------------------|

Riff 3

E|----------------------------------------------------------------|
B|----------------------------------------------------------------|
G|-5-3-5-3-5---5-3-5-3-5--5--------------------------------|
D|----------------------------------------------------------------|
A|----------------------------------------------------------------|
E|----------------------------------------------------------------|

Riff 4

E|----------------------------------------------------------------|
B|----------------------------------------------------------------|
G|-5-5-3-3-7-7-3-3-2-2-3-2-0-0----------------------------|
D|----------------------------------------------------------------|
A|-----------------------------------------------------------------|
E|-----------------------------------------------------------------|


Refrão:
Gm
Riff1
Ela veio quente, hoje eu tô fervendo
                 Riff 2
Ela veio quente, hoje eu tô fervendo
Cm
Riff 3
Quer desafiar, não to entendendo
Cm                     D7
Riff 4
Mexeu com o R7 vai voltar com a xota ardendo(vai)

Gm
Que o Helipa, é, baile de favela

Que a Marcone, é, baile de favela
Cm
E a São Rafael, é, baile de favela
Cm                          D7
E os menor preparado pra foder com a xota delas(vai)

Gm
Eliza Maria, é, baile de favela

Invasão, é, baile de favela
Cm

E as casinhas, é, baile de favela
Cm                          D7
E os menor preparado pra foder com a xota delas(vai)

Solo (Gm Cm Dm A7 Gm7)

Gm
Que o Hebron, é, baile de favela

A Bailão, é, baile de favela
Cm
E na Rua 7? Baile de favela!
Cm                          D7
E os menor preparado pra foder com a xota dela(vai)

Refrão:
Gm
Ela veio quente, hoje eu tô fervendo

Ela veio quente, hoje eu tô fervendo
Cm
Quer desafiar, não to entendendo
Cm                     D7
Mexeu com o r7 vai voltar com a xota ardendo(vai

Gm
Que o Helipa, é, baile de favela

Que a Marcone, é, baile de favela
Cm
E a São Rafael, é, baile de favela
Cm                          D7
E os menor preparado pra foder com a xota delas(vai)(3x)

Gm
Eliza Maria, é, baile de favela

Invasão, é, baile de favela
Cm
E as casinhas, é, baile de favela
Cm                          D7
E os menor preparado pra foder com a xota delas(vai)

Gm
Que o Helipa, é, baile de favela

Que a Marcone, é, baile de favela
Cm
E a São Rafael, é, baile de favela
Cm                          D7
E os menor preparado pra foder com a xota delas(vai)
Página 1 / 1

Letras e título
Acordes e artista

resetar configurações
OK