Cifra Club

O Bebê (part. Kevinho)

MC Kekel

Cifra: Principal (violão e guitarra)
Tom: D
[Intro] D  E  C#m7  F#m7

[Primeira Parte]

  D                     E
Alô, porque você não me atendeu?
                C#m7
Já tava mó preocupadão
                 F#m7
O seu pivete quase morre do coração
  D                    E
Amor, já fiz o corre pra te ver
                C#m7
Juntei a grana da passagem
                       F#m7
Contando as horas pra gente matar a saudade

[Refrão]

D
O bebê, gosto mais de você
     E
Do que de mim, do que de mim
C#m7
O bebê, gosto mais de você
        F#m7
Do que de mim, do que de mim

[Segunda Parte]

D
Antes de você eu era do mundão
  E
Gratidão, minha princesa
 C#m7
Mudou minha cabeça, só me fez crescer
 F#m7
Bota fé no que eu vou dizer

[Refrão]

D
O bebê, gosto mais de você
     E
Do que de mim, do que de mim
C#m7
O bebê, gosto mais de você
     F#m7
Do que de mim, do que de mim

D
O bebê, gosto mais de você
     E
Do que de mim, do que de mim
C#m7
O bebê, gosto mais de você
     F#m7
Do que de mim, do que de mim

[Solo]

E|-12--------------12-----------------------|
B|----10-10--10-10----10-10--10-12----------|
G|------------------------------------------|
D|------------------------------------------|
A|------------------------------------------|
E|------------------------------------------|

E|------------------------------------------|
B|-14-12-12--10-12--14-12-12----------------|
G|------------------------------------------|
D|------------------------------------------|
A|------------------------------------------|
E|------------------------------------------|

E|-12-----------12--------------------------|
B|----9-9--9-9------9-9--9-10---------------|
G|------------------------------------------|
D|------------------------------------------|
A|------------------------------------------|
E|------------------------------------------|

E|------------------------------------------|
B|-12-10-10--9-10--12-10-10-----------------|
G|------------------------------------------|
D|------------------------------------------|
A|------------------------------------------|
E|------------------------------------------|

[Primeira Parte]

  D                     E
Alô, porque você não me atendeu?
                C#m7
Já tava mó preocupadão
                 F#m7
O seu pivete quase morre do coração
  D                    E
Amor, já fiz o corre pra te ver
                C#m7
Juntei a grana da passagem
                       F#m7
Contando as horas pra gente matar a saudade

[Refrão]

D
O bebê, gosto mais de você
     E
Do que de mim, do que de mim
C#m7
O bebê, gosto mais de você
        F#m7
Do que de mim, do que de mim

[Segunda Parte]

D
Antes de você eu era do mundão
  E
Gratidão, minha princesa
 C#m7
Mudou minha cabeça, só me fez crescer
 F#m7
Bota fé no que eu vou dizer

[Refrão]

D
O bebê, gosto mais de você
     E
Do que de mim, do que de mim
C#m7
O bebê, gosto mais de você
     F#m7
Do que de mim, do que de mim

[Final] D  E  C#m7  F#m7  D

E|-12--------------12-----------------------|
B|----10-10--10-10----10-10--10-12----------|
G|------------------------------------------|
D|------------------------------------------|
A|------------------------------------------|
E|------------------------------------------|

E|------------------------------------------|
B|-14-12-12--10-12--14-12-12----------------|
G|------------------------------------------|
D|------------------------------------------|
A|------------------------------------------|
E|------------------------------------------|

E|-12-----------12--------------------------|
B|----9-9--9-9------9-9--9-10---------------|
G|------------------------------------------|
D|------------------------------------------|
A|------------------------------------------|
E|------------------------------------------|

E|------------------------------------------|
B|-12-10-10--9-10--12-10-10-----------------|
G|------------------------------------------|
D|------------------------------------------|
A|------------------------------------------|
E|------------------------------------------|
exibições 9.254
Acordes para:
    Colaboração e revisão:
    • Thiago Almeida

    0 comentários

    mostrar mais comentários

    Conseguiu tocar?

    4 tocaram 1 ainda não

    Grave um vídeo tocando O Bebê (part. Kevinho) e mande pra gente!

    00:00 / 00:00
    outros vídeos desta música
    repetir qualidade Automático
    Outros vídeos desta música
    00:00 / 00:00
    Automático
    OK