Cifra Club

Aprenda

Partiu

MC Kekel

Cifra: Principal (violão e guitarra)
tom: F#
   D#m                    B       C#      D#m          B        C#        D#m

E|---------------------|-----------9--9--9--6-|--6--6--------6--------6----------|
B|--7--9--7--9--7--9--7|--7--9--7-------------|--------9--7-----9--7-----9--7----|
G|---------------------|----------------------|--------------------------------8-|
D|---------------------|----------------------|----------------------------------|
A|---------------------|----------------------|----------------------------------|
E|---------------------|----------------------|----------------------------------|

          B        C#       D#m

E|--6--6--------6--------6-------|
B|--------9--7-----9--7-----9--7-|
G|-------------------------------|
D|-------------------------------|
A|-------------------------------|
E|-------------------------------|

   D#m                    B        C#      D#m         B        C#        D#m

E|---------------------|-----------9--9--9--6-|--6--6--------6--------6----------|
B|--7--9--7--9--7--9--7|--7--9--7-------------|--------9--7-----9--7-----9--7----|
G|---------------------|----------------------|--------------------------------8-|
D|---------------------|----------------------|----------------------------------|
A|---------------------|----------------------|----------------------------------|
E|---------------------|----------------------|----------------------------------|

          B        C#       D#m

E|--6--6--------6--------6-----------|
B|--------9--7-----9--7-----9--7-----|
G|--------------------------------8~-|
D|-----------------------------------|
A|-----------------------------------|
E|-----------------------------------|
Composição de Mc Kekel
Colaboração e revisão:
  • Kelvyn Rodrigues
  • Murilo Oliveira
110.957 exibições
    • ½ Tom
    • A
    • Bb
    • B
    • C
    • Db
    • D
    • Eb
    • E
    • F
    • F#
    • G
    • Ab
  • Adicionar à lista

    0 comentários

    Ver todos os comentários

    Conseguiu tocar?

    15 Tocaram 0 Ainda não

    Grave um vídeo tocando Partiu e nos envie!

    00:00 / 00:00
    Outros vídeos desta música
    Repetir Qualidade Automático
    Outros vídeos desta música
    00:00 / 00:00
    Automático

    Cifra Club Pro

    Aproveite o Cifra Club com benefícios exclusivos e sem anúncios
    Cifra Club Pro
    Aproveite o Cifra Club com benefícios exclusivos e sem anúncios
    OK