Cifra Club

Quem Mandou Tu Terminar

MC Kekel

Cifra: Principal (violão e guitarra)
Tom: G
(PARTE 1)
E|---12----17--14--12--|
B|---12----17--16--12--|
G|---12----17--16--12--|
D|---------------------|
A|---------------------|
E|---------------------|

(PARTE 2)

E|--17--14--12--|
B|--17--16--12--|
G|--17--16--12--|
D|--------------|
A|--------------|
E|--------------|

(PARTE 3)
E|---12-14-15--17/19-17-17-15-17-15-17-17/19--|
B|--------------------------------------------|
G|--------------------------------------------|
D|--------------------------------------------|
A|--------------------------------------------|
E|--------------------------------------------|

(PARTE 4)
E|--12-14-15-17/19--17-15-14-15-14-12---------|
B|--------------------------------------------|
G|--------------------------------------------|
D|--------------------------------------------|
A|--------------------------------------------|
E|--------------------------------------------|

(PARTE 5)
E|----------------------|
B|--12-12-12-12-13~-12--|
G|----------------------|
D|----------------------|
A|----------------------|
E|----------------------|


E agora?
Não adianta me ligar
E não chora
Sai perreco, vai pra lá
Que demora
Pra perceber que esse mundo ia girar
Pra perceber que esse mundo ia girar

E agora?
Não adianta me ligar
E não chora
Sai perreco, vai pra lá
Que demora
Pra perceber que esse mundo ia girar
Pra perceber que esse mundo ia girar

Tô bonito, tô né?
Quem mandou tu terminar?
Tô bonito, tô né?
Quem mandou tu terminar?

Tô bonito, tô né?
Quem mandou tu terminar?
Tô bonito, tô né?
Quem mandou tu terminar?

Tô bonito, tô né?
Quem mandou tu terminar?
Tô bonito, tô né?
Quem mandou tu terminar?
exibições 35.067
Acordes para:
    Composição: Mc Kekel Colaboração e revisão:
    • Giovani Scalcon
    • Zezito Oliveira
    • Robert Anthony

    0 comentários

    mostrar mais comentários

    Conseguiu tocar?

    0 tocaram 1 ainda não

    Grave um vídeo tocando Quem Mandou Tu Terminar e mande pra gente!

    00:00 / 00:00
    outros vídeos desta música
    repetir qualidade Automático
    Outros vídeos desta música
    00:00 / 00:00
    Automático
    OK