Cifra Club

Aprenda

Solteiro Nunca Está Só (part. Dani Russo)

MC Kekel

Cifra: Principal (violão e guitarra)
tom: Bb
[Intro]  Bb  Gm  Eb  F
         Bb  Gm  Eb  F

E|---------------------------------------------15-15----------------|
B|-18-18-18-18-18-18-15-18--18-18-15-18--18-18--------18------------|
G|------------------------------------------------------------------|
D|------------------------------------------------------------------|
A|------------------------------------------------------------------|
E|------------------------------------------------------------------|

E|-18-------------------------------18------------------------------|
B|-----18-18-18-18-16--15--15--13-------18-18-18-18-16--15--15--13--|
G|------------------------------------------------------------------|
D|------------------------------------------------------------------|
A|------------------------------------------------------------------|
E|------------------------------------------------------------------|

E|-18---------------------------------------------------------------|
B|-----18-18-18-18-16--15--15--11-----------------------------------|
G|------------------------------------------------------------------|
D|------------------------------------------------------------------|
A|------------------------------------------------------------------|
E|------------------------------------------------------------------|

   Bb            Gm
Valeu mozão por terminado comigo
       Eb            F
Que situação, eu fiquei de coração partido
                 Bb                      Gm
Não é que eu gostava dela, que ela me tirou do Mandela
         Eb                               F           Bb
É que achou que podia mudar da noite pro dia o favela

                Gm                         Eb
Ela terminou comigo, achou que eu ia pra pior
    F                Bb     Gm               Eb
Solteiro nunca está só, solteiro nunca está só
    F                Bb
Solteiro nunca está só
                Gm                         Eb
Ela terminou comigo, achou que eu ia pra pior
    F                Bb     Gm               Eb
Solteiro nunca está só, solteiro nunca está só
    F                Bb
Solteiro nunca está só

   Bb            Gm
Valeu mozão por terminado comigo
       Eb            F
Que situação, eu fiquei de coração partido
                 Bb                      Gm
Não é que eu gostava dele, que ele me tirou do Mandela
         Eb                               F
E que achou que podia mudar da noite pro dia
                   Bb
A menina de quebra

                Gm                         Eb
Ele terminou comigo, achou que eu ia pra pior
    F                Bb     Gm               Eb
Solteiro nunca está só, solteiro nunca está só
    F                Bb
Solteiro nunca está só
                Gm                         Eb
Ele terminou comigo, achou que eu ia pra pior
    F                Bb     Gm               Eb
Solteiro nunca está só, solteiro nunca está só
    F                Bb
Solteiro nunca está só

( Bb  Gm  Eb  F ) 
( Bb  Gm  Eb  F ) 

   Bb
Valeu mozão
Composição de Keldson Willian da Silva
Colaboração e revisão:
  • Guilherme Vanz
170 exibições
    • ½ Tom
    • A
    • Bb
    • B
    • C
    • Db
    • D
    • Eb
    • E
    • F
    • F#
    • G
    • Ab
  • Adicionar à lista

    0 comentários

    Ver todos os comentários

    Conseguiu tocar?

    0 Tocaram 0 Ainda não

    Grave um vídeo tocando Solteiro Nunca Está Só (part. Dani Russo) e nos envie!

    00:00 / 00:00
    Outros vídeos desta música
    Repetir Qualidade Automático
    Outros vídeos desta música
    00:00 / 00:00
    Automático

    Cifra Club Pro

    Aproveite o Cifra Club com benefícios exclusivos e sem anúncios
    Cifra Club Pro
    Aproveite o Cifra Club com benefícios exclusivos e sem anúncios
    OK