Olha a Explosão (part. Wesley Safadão)

Kevinho

Composição: Mc Ez
Tom: C
Intro: Am  G  Am  G  Am  G

Parte 1 de 2 (3x)
E|----------8-8-8-------------------------------------|
B|-10-10-10-------8-8-9-10----------------------------|
G|----------------------------------------------------|
D|----------------------------------------------------|
A|----------------------------------------------------|
E|----------------------------------------------------|

Parte 2 de 2
E|-------12-12-12-10----------------------------------|
B|-10-10---------------8-9-10-------------------------|
G|-------------------9--------------------------------|
D|----------------------------------------------------|
A|----------------------------------------------------|
E|----------------------------------------------------|

Primeira Parte:

        Am
Essa novinha é terrorista

É especialista
G
Olha o que ela faz 

No baile funk com as amigas

        Am
Essa novinha é terrorista

É especialista
G
Olha o que ela faz 

No baile funk com as amigas
Am
Olha o que ela faz 
          G
No baile funk com as amigas

Pré-refrão:

Am
É muito explosiva 
     G            Am
Não mexe com ela não
Am
É muito explosiva 
      G             Am
Não brinca com ela não

Olha a explosão

Refrão:

              G                    Am
E quando ela bate com a bunda no chão
              G                    Am
E quando ela mexe com a bunda no chão
              G                    Am
E quando ela joga com a bunda no chão
              G
E quando ela sarra com o bumbum
     Am
No chão, chão, chão, chão, chão

              G                    Am
E quando ela bate com a bunda no chão
              G                    Am
E quando ela mexe com a bunda no chão
              G                    Am
E quando ela joga com a bunda no chão
              G
E quando ela sarra com o bumbum
     Am
No chão, chão, chão, chão, chão
Página 1 / 1

Letras e título
Acordes e artista

resetar configurações
OK