Rabiola

Kevinho

Composição: MC Kevinho
Tom: A
Violão 1 

(Intro)

E|--5-5-5-5--8--5------|
B|---------------------|
G|---------------------|
D|---------------------|X2
A|---------------------|
E|---------------------|

E|--4-4-4-4--7--4------|
B|---------------------|
G|---------------------|
D|---------------------|X2
A|---------------------|
E|---------------------|

E|--5-5-5-5--8--5------|
B|---------------------|
G|---------------------|
D|---------------------|X2
A|---------------------|
E|---------------------|


E|--4-4-4-4--7--4------|
B|---------------------|
G|---------------------|
D|---------------------|
A|---------------------|
E|---------------------|

E|-12-12-12--10--8--7--5----|
B|--------------------------|
G|--------------------------|
D|--------------------------|
A|--------------------------|
E|--------------------------|


Violão 2

[Intro]  Am  E  Am  E

Am                      E
  Essa menina é um problema
  É cheia de esquema
         Am
É complicada
                      E
Você pensa que ela é calma
                               Am
Mas só que tem alma de pipa avoada

                    E
Fala que vai pra casa das amigas
                  Am
Mente pra mãe e pro pai
                      E
Bota outra roupa por baixo
                            Am
Parece uma linha fininha e sai

                          E
Hoje vai chamar no probleminha, vai
                          Am
Hoje a gata vai perder a linha, vai
                            E
Hoje vai curtir com as amiguinhas, vai
                          Am
Hoje o negócio vai ficar bom
                          E
Hoje vai chamar no probleminha, vai
                          Am
Hoje a gata vai perder a linha, vai
                            E
Hoje vai curtir com as amiguinhas, vai
                             Am
Vai rebolar em frente o paredão

Am
  Mexe a raba
           E
Mexe a rabiola
Mexe a raba
           Am
Mexe a rabiola
Mexe a raba
           E
Mexe a rabiola
                       Am
Rebola gostoso até o chão
Am
  Mexe a raba
           E
Mexe a rabiola
Mexe a raba
           Am
Mexe a rabiola
Mexe a raba
           E
Mexe a rabiola
                       Am
Rebola gostoso até o chão

( Am  E  Am  E )
( Am  E  Am )
( E )

Am                      E
  Essa menina é um problema
  É cheia de esquema
         Am
É complicada
                      E
Você pensa que ela é calma
                               Am
Mas só que tem alma de pipa avoada

                    E
Fala que vai pra casa das amigas
                  Am
Mente pra mãe e pro pai
                      E
Bota outra roupa por baixo
                            Am
Parece uma linha fininha e sai

                          E
Hoje vai chamar no probleminha, vai
                          Am
Hoje a gata vai perder a linha, vai
                            E
Hoje vai curtir com as amiguinhas, vai
                          Am
Hoje o negócio vai ficar bom
                          E
Hoje vai chamar no probleminha, vai
                          Am
Hoje a gata vai perder a linha, vai
                            E
Hoje vai curtir com as amiguinhas, vai
                             Am
Vai rebolar em frente o paredão

Am
  Mexe a raba
           E
Mexe a rabiola
Mexe a raba
           Am
Mexe a rabiola
Mexe a raba
           E
Mexe a rabiola
                       Am
Rebola gostoso até o chão
Am
  Mexe a raba
           E
Mexe a rabiola
Mexe a raba
           Am
Mexe a rabiola
Mexe a raba
           E
Mexe a rabiola
                       Am
Rebola gostoso até o chão

[Final]  Am  E  Am  E
         Am  E  Am  E  Am
Página 1 / 1

Letras e título
Acordes e artista

resetar configurações
OK