Cifra Club

Aprenda

Salvou Meu Dia (part. Gusttavo Lima)

Kevinho

Cifra: Principal (violão e guitarra)
Tom: F
[Intro] F  G  Em  Am

[Solo Teclado]

E|------------------------------------------|
B|-5-5--8-6-5-6-5-----8-6-5-6-5-------------|
G|-----------------5-------------5----------|
D|------------------------------------------|
A|------------------------------------------|
E|------------------------------------------|

E|------------------------------------------|
B|-8-6-5-6-5--------5-----------------------|
G|------------5--7--------------------------|
D|------------------------------------------|
A|------------------------------------------|
E|------------------------------------------|

[Primeira Parte]

F                  G
  Eu tô com pressa, vontade louca
Em                Am
  Tô decido a beijar sua boca
F               G
  Desejo desses, tá pra nascer
Em                     Am
  Eu só senti essas paradas por você 
 F                       G
Você tá ouvindo o grave do bailão
Em                     Am
É assim que tá batendo o meu coração
F              G
  Eu tô focado, e não desisto 
Am
O não eu já tenho, o sim eu conquisto 

[Refrão]

               F              
É que você salvou meu dia
G                     Em          Am
  Esse sorriso seu é muita covardia 
                F 
E se quiser salvar minha noite
 G                    Am
Diz que vai dormir comigo hoje

               F              
É que você salvou meu dia
G                     Em          Am
  Esse sorriso seu é muita covardia 
                F 
E se quiser salvar minha noite
 G                    Am
Diz que vai dormir comigo hoje

          F                 G
Deixa eu dar, um cheiro no cangote
    Em                 Am
Se não arrepiar "cê"' me devolve
          F                 G
Deixa eu dar, um cheiro no cangote
    Em                 Am
Se não arrepiar "cê"' me devolve

[Solos] G  A  F#m  Bm

[Solo Teclado]

E|------------------------------------------|
B|-7-7--10-8-7-8-7-----10-8-7-8-7-----------|
G|------------------7--------------7--------|
D|------------------------------------------|
A|------------------------------------------|
E|------------------------------------------|

E|------------------------------------------|
B|-10-8-7-8-7--------7----------------------|
G|-------------7--9-------------------------|
D|------------------------------------------|
A|------------------------------------------|
E|------------------------------------------|

[Solo Guitarra]

E|-/19-19-19-17-17--14-14-14-12-10-12-14-14-|
B|------------------------------------------|
G|------------------------------------------|
D|------------------------------------------|
A|------------------------------------------|
E|------------------------------------------|

E|-22-22-22--22--22\------------------------|
B|------------------------------------------|
G|------------------------------------------|
D|------------------------------------------|
A|------------------------------------------|
E|------------------------------------------|

[Primeira Parte]

G                  A
  Eu tô com pressa, vontade louca
F#m               Bm
  Tô decido a beijar sua boca
G               A
  Desejo desses, tá pra nascer
F#m                    Bm
  Eu só senti essas paradas por você 
 G                       A
Você tá ouvindo o grave do bailão
F#m                    Bm
É assim que tá batendo o meu coração
G              A
  Eu tô focado, e não desisto 
F#m                   Bm
O não eu já tenho, o sim eu conquisto 

[Refrão]

               G              
É que você salvou meu dia
A                     F#m         Bm
  Esse sorriso seu é muita covardia 
                G
E se quiser salvar minha noite
 A                    Bm
Diz que vai dormir comigo hoje

               G              
É que você salvou meu dia
A                     F#m         Bm
  Esse sorriso seu é muita covardia 
                G
E se quiser salvar minha noite
 A                    Bm
Diz que vai dormir comigo hoje

          G                 A
Deixa eu dar, um cheiro no cangote
    F#m                Bm
Se não arrepiar "cê"' me devolve
          G                 A
Deixa eu dar, um cheiro no cangote
    F#m                Bm
Se não arrepiar "cê"' me devolve

[Final] G  A  F#m  Bm

[Solo Teclado]

E|------------------------------------------|
B|-7-7--10-8-7-8-7-----10-8-7-8-7-----------|
G|------------------7--------------7--------|
D|------------------------------------------|
A|------------------------------------------|
E|------------------------------------------|

E|------------------------------------------|
B|-10-8-7-8-7--------7----------------------|
G|-------------7--9-------------------------|
D|------------------------------------------|
A|------------------------------------------|
E|------------------------------------------|
Composição de Breno Casagrande / Filipe Escandurras / Gusttavo Lima / kevinho / Shylton Fernandes
Colaboração e revisão:
  • Lucas Kappaun
11.299 exibições
    • ½ Tom
    • A
    • Bb
    • B
    • C
    • Db
    • D
    • Eb
    • E
    • F
    • F#
    • G
    • Ab
  • Adicionar à lista

    0 comentários

    Mostrar mais comentários

    Conseguiu tocar?

    6 Tocaram 1 Ainda não

    Grave um vídeo tocando Salvou Meu Dia (part. Gusttavo Lima) e mande pra gente!

    00:00 / 00:00
    outros vídeos desta música
    repetir qualidade Automático
    Outros vídeos desta música
    00:00 / 00:00
    Automático
    OK