Sua Amiga Eu Vou Pegar

MC Lan

tom: G
É só repetir o riff:

E|-----------------------------------------------------------------|
B|-----------------------------------------------------------------|
G|-----------------------------------------------------------------|
D|-----------------------------------------------------------------|
A|--------6-8-----8-6------------------9-8-----8-6-8-9-8-6---------|
E|--6-8-9-------------9-8-6------6-8-9---------------------9-8-(6)-|

Uma oitava acima:

E|-------------------------------------------------------------------------------|
B|-------------------------------------------------------------------------------|
G|----------8-10-----10-8---------------------11-10----10-8-10-11-10-8-----------|
D|--8-10-11---------------11-10-8-----8-10-11--------------------------11-10-(8)-|
A|-------------------------------------------------------------------------------|
E|-------------------------------------------------------------------------------|
Página 1 / 1

Letras e título
Acordes e artista

resetar configurações
OK