Cifra Club

Amiga Parceira

Pikeno e Menor

Cifra: Principal (violão e guitarra)
exibições 93.599
Tom: A
E|----------------|----------10--9------|  
B|----10------12--|----12--12-----12----|
G|--11--11--11--13|--13--13----------11-|
D|----------------|---------------------|
A|----------------|---------------------|
E|----------------|---------------------|

E|----------------|----------10--9---9--|  
B|----10------12--|----12--12-----12----|
G|--11--11--11--13|--13--13-------------|
D|----------------|---------------------|
A|----------------|---------------------|
E|----------------|---------------------|

E|-9-9-9-9-10-9----------------10-9----9-|  
B|--------------12-12-12-12-12------12---|
G|---------------------------------------|
D|---------------------------------------|
A|---------------------------------------|
E|---------------------------------------|

E|-------------------9----------------------|  
B|-10-10-10-10-10-10---10---9-9-9-12-10-9-7-|
G|------------------------------------------|
D|------------------------------------------|
A|------------------------------------------|
E|------------------------------------------|

F#m                  E
Ela gosta muito de viagem
                   F#m
 Vodka, tequila e breja
                              E
 Mas sempre quando chama uma mina
                            F#m
 Escuta que o namorado não deixa

                             E
Nunca foi por qualquer conversinha
                            F#m
 Que o coração dessa mina balança
                             E
 Mas se bem que não é culpa dela
                            F#m
 Se o dedo dela não curte aliança

                         E
Mas é fácil de ver que sozinha
                     F#m
 Ela rouba qualquer cena
                            E
 Mas dessa vez não vai tá sozinha
                            F#m
 Porque toda loira tem sua morena

                  E
E fazer elas de namoradas
                 F#m
 Isso todo mundo quer
                   E
Manda passar outro dia
                    F#m
 Que a frase do dia é:

          E
Amiga, parceira
                  F#m
 Só se for amiga solteira
             E
 Amiga, parceira
                      F#m
 Só se for amiga solteira

                       E
Livre, louca, curte a vida
                      F#m
 E o melhor vou te dizer
                       E
 Não só sabe suas loucuras
                      F#m
 Mas vive elas com você
Acordes para:
    Composição: MENOR / Pikeno Colaboração e revisão:

    0 comentários

    mostrar mais comentários

    Conseguiu tocar?

    10 tocaram 3 ainda não

    Grave um vídeo tocando Amiga Parceira e mande pra gente!

    00:00 / 00:00
    outros vídeos desta música
    repetir qualidade Automático
    Outros vídeos desta música
    00:00 / 00:00
    Automático
    OK