Cifra Club

Yo sólo pienso en tí

Mdo

Cifra: Principal (violão e guitarra)
tom: Dm
    F    Bb   C   Dm   Gm   C7   Dm7  Am7  Am   F7
E) -1-  -1-  -0-  -1-  -3-  -3-  -1-  -3-  -0-  -1-
B) -1-  -3-  -1-  -3-  -3-  -5-  -1-  -1-  -1-  -1-
G) -2-  -3-  -0-  -2-  -3-  -3-  -2-  -2-  -2-  -2-
D) -3-  -3-  -2-  -0-  -5-  -5-  -0-  -2-  -2-  -1-
A) -3-  -1-  -3-  -X-  -5-  -3-  -X-  -0-  -0-  -3-
E) -X-  -X-  -X-  -X-  -3-  -X-  -X-  -X-  -X-  -1-

   G#2  Bb2   F#   C#  D#m  Bbm   B   G#m   D#
E) -4-  -6-  -2-  -4-  -6-  -1-  -2-  -4-  -3-
B) -4-  -6-  -2-  -6-  -7-  -2-  -4-  -4-  -4-
G) -5-  -7-  -3-  -6-  -8-  -3-  -4-  -4-  -3-
D) -6-  -8-  -4-  -6-  -8-  -3-  -4-  -6-  -1-
A) -6-  -8-  -4-  -4-  -6-  -1-  -2-  -6-  -X-
E) -4-  -6-  -X-  -4-  -X-  -X-  -X-  -4-  -X-

Nota: El acorde “A#2” es “A#” en su segunda inversión (La sostenido).
      El acorde “G#2” es “G#” en su segunda inversión (Sol sostenido)
INTRO
E|-1---1-0------------------|
B|-----3-1------1-3---3-1---|
G|---2------2-3-------------|
D|-0--------------3-----3---|
A|------------------0-------|
E|--------------------------|

E|-----------------------------------------6h5-------|
B|----------------------------------6-5h-6-----6-----|
G|--0-2-3/5-3-3-2-2---------------7------5-------5-3-|
D|-3----------------5-5-3-3/5---8--------------------|
A|---------------------------------------------------|
E|---------------------------------------------------|

       F                  Bb
Si por cada momento que pienso en ti
     C                     Dm
Yo ganara un segundo de vida
     Bb                    Gm
de seguro estoy que no iba a morir
      C7                        Dm7
porque yo pienso en ti noche y día.

E|-5----3-----|
B|-6----5-----|
G|---5----5---|
D|------------|
A|------------|
E|------------|
Dm                           Gm
Si por cada recuerdo que tengo de ti
       C                 Am7
yo tuviese un puñado de arena
       Dm                    Gm
ni desiertos ni mares habría porque
    C7                 C
seria mía toda la tierra.

CORO:
    F                      C
Yo pienso en ti mientras duermo
    Dm                   Am
Yo pienso en ti o  te sueño
      Bb                                         F
me despierto y sin darme ni cuenta pronuncio tu nombre
      Gm                                     C7
luego beso tu foto que esta en mi mesita de noche

    F                      C
Yo pienso en ti a cada instante
        Dm              Am
yo pienso en ti únicamente
    Bb                                            F
y no hay nada que pueda alejarme de ti ni un momento
       Gm                                      C
porque tu estas metida en mi alma y en mi pensamiento

             Dm   Am      Bb   F
Yo pienso en ti....      en ti....
 Gm            C          F7
solamente pienso       en ti

 G#2            Bb2          F
Aunque estas muy lejos yo siento
 G#2            Bb2    Dm7
Que estas tan cerca de mí
      Dm            Am         Bb      F
Vives siempre en mi mente y  en mi corazón
   Gm               C7
Yo nunca te voy olvidar.

Fade:
E|-1-1-5-6-8-8-6-13-12-10-6/8-6-5-5-8-6-6-13h-|
B|-1-1-6-6-6-6-6-11-----------------6-6-6-11h-|
G|-2------------------------------------------|
D|--------------------------------------------|
A|--------------------------------------------|
E|--------------------------------------------|

       F                  Bb
Si por cada momento que pienso en ti
     C                     Dm
yo ganara un segundo de vida
     Bb                      Gm
de seguro estoy que no iba a morir
      C7                        Dm7
porque yo pienso en ti noche y día

Dm                           Gm
Si por cada recuerdo que tengo de ti
       C                 Am7
yo tuviese un puñado de arena
       Bb                    Gm
Ni desiertos ni mares habría porque
      C7            C
Seria mía toda la tierra.

ESTRIBILLO:
             F#                C#
Yo pienso en tiii   mientras duermo
     D#m                  Bbm
Yo pienso en ti como te sueño
        B                                        Bbm
Me despierto y sin darme ni cuenta pronuncio tu nombre
      G#m                                    C#
luego beso tu foto que esta en mi mesita de noche

******ARPEGIOS*********

     F#                C#
E|--------------------------------------|
B|-----2-------2------------------------|
G|-------3-------3------6-------6-------|
D|---4-------4------------6-------6-----|
A|-4-------4----------4-------4---------|
E|------------------4-------4-----------|
Yo pienso en ti a cada instante

     D#m              Bb2
E|----------------------------------6---|
B|-----7-------7--------------------6---|
G|-------8-------8--------------7---7---|
D|---8-------8----------8---------8-8---|
A|-6-------6----------8---8---8---------|
E|------------------6-------6-----------|
Yo pienso en ti únicamente

    B                      Bbm
E|-----------------------------------------|
B|-----4--------4------------2--------2----|
G|-------4--------4------------3--------3--|
D|---4--------4------------3--------3------|
A|-2--------2------------1--------1--------|
E|-----------------------------------------|
y no hay nada que pueda alejarme de ti ni un momento

      G#m                  C#
E|-----------------------------------------|
B|-----4-------4---------------------------|
G|-------4-------4-----6-------6-----------|
D|---6-------6-----------6-------6---------|
A|-6-------6---------4-------4-------------|
E|-----------------4-------4---------------|
Porque tu estas metida en mi alma y en mi pensamiento

********Rasgueo suave****************
             D#m  C#     B   Bbm
Yo pienso en tiiii   en  tiiiii
    G#m      C#           D#
solamente pienso       en ti...
00:00 / 00:00
Outros vídeos desta música
Repetir
Outros vídeos desta música
Composição de Leonardo fabio
1 exibições
    • ½ Tom
    • Am
    • Bbm
    • Bm
    • Cm
    • C#m
    • Dm
    • Ebm
    • Em
    • Fm
    • F#m
    • Gm
    • G#m
  • Adicionar à lista

    0 comentários

    Ver todos os comentários

    Conseguiu tocar?

    0 Tocaram 0 Ainda não

    Grave um vídeo tocando Yo sólo pienso en tí e nos envie!

    00:00 / 00:00

    Cifra Club Pro

    Aproveite o Cifra Club com benefícios exclusivos e sem anúncios
    Cifra Club Pro
    Aproveite o Cifra Club com benefícios exclusivos e sem anúncios
    OK