Cifra Club

Aprenda

Dont Cry For Me Argentina

Me First And The Gimme Gimmes

Cifra: Principal (violão e guitarra)
tom: G
Tabbed out by: Daniel McDougall
E-mail: *

Key

  >  =  keep strumming (listen to the song for the length of strumming)
  P. =  Palm mute

Intro:

e|-------------------------|
b|-------------------------|
g|--7-7-77-----------------|
d|--7-7-77->--7--4--5------|
a|--5-5-55----7--4--5-hold-|
E|------------5--2--3------|

Verse: part 1

e|------------------------------------| 
b|------------------------------------| Straight after u have played this,
g|-----------------------7-7----------| go right into the intro but dont 
d|-2-2-----7-7----5-5----5-5->--7-7---| hold the last chord. and then go 
a|-2-2->>--7-7->--5-5->--5-5----7-7->-| straight into the chorus.
E|-0-0-----5-5----3-3-----------5-5---|
     P.      P.     P.     P.     P.

Chorus:

e|-----------------------------------|
b|-----------------------------------|
g|---------7----5---------5--5-------|
d|--5------7->--5->--5----5--5-hold--|
a|--5->>>--5----3----5->--3--3-------|
E|--3----------------3---------------|

Verse: part 2 

e|-----------------------------------|
b|-----------------------------------| Then play the verse:part 1 BUT, without
g|---------5-5----7-7----------------| the palm muting.
d|--5-5----5-5->--7-7->--5-5-----4---| and then  
a|--5-5->--3-3----5-5----5-5->>--4->-|         |
E|--3-3------------------3-3-----2---|         | 
      P.     P.     P.     P.    P.            | 
                                               |
  |-INTRO -5----9->---7----7->--5-55--7-77--5->---|
a|--7->--5---5->--7-----7->--5----5-55--5-55--3-----|
E|--5--------3----------5---------3-33--------------|

   |-CHORUS

Outro: 
e|-----------------|
b|-----------------| Play the outro straight after the chorus.
g|-------5--5------|
d|--5----5--5-hold-|
a|--5->--3--3------|
E|--3--------------|
2.074 exibições
    • ½ Tom
    • A
    • Bb
    • B
    • C
    • Db
    • D
    • Eb
    • E
    • F
    • F#
    • G
    • Ab
  • Adicionar à lista

    0 comentários

    Ver todos os comentários

    Conseguiu tocar?

    0 Tocaram 0 Ainda não

    Grave um vídeo tocando Dont Cry For Me Argentina e nos envie!

    00:00 / 00:00
    outros vídeos desta música
    repetir qualidade Automático
    Outros vídeos desta música
    00:00 / 00:00
    Automático

    Cifra Club Pro

    Aproveite o Cifra Club com benefícios exclusivos e sem anúncios
    Cifra Club Pro
    Aproveite o Cifra Club com benefícios exclusivos e sem anúncios
    OK