Cifra Club

O Sole Mio

Me First And The Gimme Gimmes

Cifra: Principal (violão e guitarra)
tom: F#
intro..

D|----------------------|
G|----------------------|2x
A|----------------------|
E|--2-2-2-2-2-2-2-2-2-2-|



verso-parte1 
Che bella cosa...

D|------------------------------------------------------------------------------------------|
G|------------------------------------------------------------------------------------------|
A|-----------------------2-2-2-2-2-2-2-2-2-2-2-----------------4-4-4-4-4-4-4----------------|
E|-2-2-2-2-2-2-2-2-2-2-2-----------------------4-4-4-4-4-4-4-4---------------2-2-2-2-2-2-2-2|

verso-parte2
entra guita...

   |------------p.m------------------------p.m--------------------------p.m---------------------|
e|----------------------------------------------------------------------------------------------|
B|----------------------------------------------------------------------------------------------|
D|-----------------------4-4-4-4-4-4-4-3-3---------------------------------6-6-6-6-6-6----------|
G|-4-4-4-4-4-4-4-4-4-4-4-4-4-4-4-4-4-4-1-1-6-6-6-6-6-6-6-6-4-4-4-4-4-4-4-4-6-6-6-6-6-6-4-4-4-4-4|
A|-4-4-4-4-4-4-4-4-4-4-4-2-2-2-2-2-2-2-1-1-6-6-6-6-6-6-6-6-4-4-4-4-4-4-4-4-4-4-4-4-4-4-4-4-4-4-4|
E|-2-2-2-2-2-2-2-2-2-2-2-------------------4-4-4-4-4-4-4-4-2-2-2-2-2-2-2-2-------------2-2-2-2-2|

refrão
e|------------------------------------------------------------------------------------------------|
B|------------------------------------------------------------------------------------------------|
D|-----------------------6-6-6-6-6-6-6-6-6-6-6-6-6-6-6-6-6-6-6-6-6-6-----------------------4-4-4-4|
G|-4-4-4-4-4-4-4-4-4-4-4-6-6-6-6-6-6-6-6-6-6-6-6-6-6-6-6-6-6-6-6-6-6-4-4-4-4-4-4-4-4-4-4-4-4-4-4-4|
A|-4-4-4-4-4-4-4-4-4-4-4-4-4-4-4-4-4-4-4-4-4-4-4-4-4-4-4-4-4-4-4-4-4-4-4-4-4-4-4-4-4-4-4-4-2-2-2-2|
E|-2-2-2-2-2-2-2-2-2-2-2---------------------------------------------2-2-2-2-2-2-2-2-2-2-2--------|

e|--------------------------------------------------------------------------------------------|
B|--------------------------------------------------------------------------------------------|
D|-4-4-4-4-4-4-4-4-4-4-4-----------------------6-6-6-6-6-6-6-6-6-6-6-6-6----------------------|
G|-4-4-4-4-4-4-4-4-4-4-4-4-4-4-4-4-4-4-4-4-4-4-6-6-6-6-6-6-6-6-6-6-6-6-6-4-4-4-4-4-4-4-4-4-4-4|
A|-2-2-2-2-2-2-2-2-2-2-2-4-4-4-4-4-4-4-4-4-4-4-4-4-4-4-4-4-4-4-4-4-4-4-4-4-4-4-4-4-4-4-4-4-4-4|
E|-----------------------2-2-2-2-2-2-2-2-2-2-2---------------------------2-2-2-2-2-2-2-2-2-2-2|


repete verso-parte 1 1x
repete verso-parte 2 2x

end
e|-------------------------------------------------------------------------|
B|-------------------------------------------------------------------------|
D|-4--------------------6-6-6-6-6-6-6-6-6-6-6-6-6--------------------------|
G|-4-------4------------4-4-4-4-4-4-4-4-4-4-4-4-4-4-4-4-4-4-4-4-4-4-4-4-4-4|
A|-2-------4------------4-4-4-4-4-4-4-4-4-4-4-4-4-4-4-4-4-4-4-4-4-4-4-4-4-4|
E|---------2--------------------------------------2-2-2-2-2-2-2-2-2-2-2-2-2|
Compositor não encontrado.
Colaboração e revisão:
  • Léo júnior
2.117 exibições
    • ½ Tom
    • A
    • Bb
    • B
    • C
    • Db
    • D
    • Eb
    • E
    • F
    • F#
    • G
    • Ab
  • Adicionar à lista

    0 comentários

    Ver todos os comentários

    Conseguiu tocar?

    0 Tocaram 0 Ainda não

    Grave um vídeo tocando O Sole Mio e nos envie!

    00:00 / 00:00
    Outros vídeos desta música
    Repetir Qualidade Automático
    Outros vídeos desta música
    00:00 / 00:00
    Automático

    Cifra Club Pro

    Aproveite o Cifra Club com benefícios exclusivos e sem anúncios
    Cifra Club Pro
    Aproveite o Cifra Club com benefícios exclusivos e sem anúncios
    OK