Cifra Club

Aprenda

Parasita

MedelliN

Cifra: Principal (violão e guitarra)
tom: G
 Parasita

MedelliN

 Introduçao

D|---------------------------------------------------------------------------------------------------------------------------
A|---------------------------------------------------------------------------------------------------------------------------
F|---------------------------------------------------------------------------------------------------------------------------REpete 2X
C|-----------------------------------------------------------5-------------------------------7-7-------------------4-7-4-----
G|-5-5---------------------------8-8---------------------5-7---4-4-------------------------------------------4-5-7-------4---
C|-----0-0-0-0-0-0-0-0-0-0-0-0-0-----0-0-0-0-0-0-0-0-0-0-----------0-0-0-0-0-0-0-0-0-0-0-0-0-----0-0-0-0-0-0-----------------

D|------------------------------------------------------------------------------------------------------------
A|------------------------------------------------------------------------------------------------------------
F|------------------------------------------------------------------------------------------------------------
C|----------------------------------------------------------5-0---------------------------------------------5-
G|----------------------------------------------------------5-0-----------------------------------------7-5---
C|-0-0-0-0-0-0-0-0-0-0-0-0-0-0-0-0-0-0-0-0-0-0-0-0-0-0-0-0-0----0-0-0-0-0-0-0-0-0-0-0-0-0-0-0-0-0-0-0-0-------

Nunca fiz questão de mostrar
Que estive sempre certo
Nem preciso dizer
Nada pra você

D|------------------------------------------------------------------------------------------------------------------------

A|------------------------------------------------------------------------------------------------------------------------

F|------------------------------------------------------------------------------------------------------------------------
C|----------------------------------5---------------------------------------------------------5-------------7-x-x-7x-7-5--
G|-5-5--------------------------5-7---4-4----------------------5-5-------------------------5-7--4-4-----------------------
C|-----0-0-0-0-0-00-0-0-0-0-0-0-----------0-0-0-0-00-0-0-0-0-0-----0-0-0-0-0-00-0-0-0-0-0-0--------0-0-0-0-0--------------


Você bate no peito diz
Bate no peito e diz ser seu
Mas você sabe
Fui eu, fui eu que construí

D|--------------------------------------------------------------------------------------------------------------
A|--------------------------------------------------------------------------------------------------------------
F|--------------------------------------------------------------------------------------------------------------
C|-3-3-3-3-3-3-3-3-3-3-3-3-3-3--5-5-5-5-5-5--x-6-6-6-6-6--------------------------------------------------------REpete 2X
G|-1-1-1-1-1-1-1-1-1-1-1-1-1-1--3-3-3-3-3-3--x-4-4-4-4-4-0-0-0-0-0-0-0-0-0-0-0-0-3-3-3-3-3-3-3-3-3-3-3-3-3------
C|-------------------------------------------------------0-0-0-0-0-0-0-0-0-0-0-0-3-3-3-3-3-3-3-3-3-3-3-3-3------


Melhor morrer do que ser alguém
Que crescer o olho em tudo
E não faz nada por ninguém
Melhor morrer do que ser você

D|------------------------------------------------------------------------------------------------------------------------

A|------------------------------------------------------------------------------------------------------------------------

F|------------------------------------------------------------------------------------------------------------------------
C|----------------------------------5---------------------------------------------------------5---------------------------
G|-5-5--------------------------5-7---4-4----------------------5-5-------------------------5-7--4-4---------7-7-----------
C|-----0-0-0-0-0-00-0-0-0-0-0-0-----------0-0-0-0-00-0-0-0-0-0-----0-0-0-0-0-00-0-0-0-0-0-0--------0-0-0-0-0---0-0-0-0-0--

D|------------------------------------------------------------------------------------------------------------------------

A|------------------------------------------------------------------------------------------------------------------------

F|------------------------------------------------------------------------------------------------------------------------
C|----------------------------------5---------------------------------------------------------5-------------7-x-x-7x-7-5--
G|-5-5--------------------------5-7---4-4----------------------5-5-------------------------5-7--4-4-----------------------
C|-----0-0-0-0-0-00-0-0-0-0-0-0-----------0-0-0-0-00-0-0-0-0-0-----0-0-0-0-0-00-0-0-0-0-0-0--------0-0-0-0-0--------------




Não consegue entender
Entender minhas razões
Não se conforma com as contrarias opiniões
Mas vou contar provoquei teu ódio
Só pra me agradar
E me fez tão bem ver a inveja te tornar refém


D|--------------------------------------------------------------------------------------------------------------
A|--------------------------------------------------------------------------------------------------------------
F|--------------------------------------------------------------------------------------------------------------
C|-3-3-3-3-3-3-3-3-3-3-3-3-3-3--5-5-5-5-5-5--x-6-6-6-6-6--------------------------------------------------------REpete 2X
G|-1-1-1-1-1-1-1-1-1-1-1-1-1-1--3-3-3-3-3-3--x-4-4-4-4-4-0-0-0-0-0-0-0-0-0-0-0-0-3-3-3-3-3-3-3-3-3-3-3-3-3------
C|-------------------------------------------------------0-0-0-0-0-0-0-0-0-0-0-0-3-3-3-3-3-3-3-3-3-3-3-3-3------

D|-------------9---------------------9---------------9-------------------------
A|-------------9---------------------9---------------9-------------------------
F|-----------------------------------------------------------------------------
C|------------------------------------------------------------------------7----
G|-0-0-0-0-0-0---0-0----0-0-0-0-0-0-0----0-0-0-0-0-0----0-0--0-4-5-0-4-5-4--4--
C|-0-0-0-0-0-0---0-0----0-0-0-0-0-0-0----0-0-0-0-0-0----0-0--------------------

D|-------------9---------------------9---------------9------------
A|-------------9---------------------9---------------9------------
F|----------------------------------------------------------------
C|----------------------------------------------------------------
G|-0-0-0-0-0-0---0-0----0-0-0-0-0-0-0----0-0-0-0-0-0----0-0--4----
C|-0-0-0-0-0-0---0-0----0-0-0-0-0-0-0----0-0-0-0-0-0----0-0-------

D|--------------------------------------------------------
A|--------------------------------------------------------
F|--------------------------------------------------------
C|--------------------------------------------------------
G|-0-0-0-0-0-0---0-0----0-0-0-0-0-0-0----0-0-0-0-0-0------
C|-0-0-0-0-0-0---0-0----0-0-0-0-0-0-0----0-0-0-0-0-0------



Melhor morrer do que ser alguém
Que crescer o olho em tudo e não faz nada por ninguém
Melhor morrer do que ser você
Um parasita inútil que não vai sobreviver
Melhor morrer
Melhor morrer


D|-------------------------------------------------------------------------------------------------------
A|-------------------------------------------------------------------------------------------------------
F|-------------------------------------------------------------------------2-2-2-2-2-2-2-2---------------
C|-------------------------------------------------------------------------0-0-0-0-0-0-0-0-------7-5h-7--
G|-0-0-0-0-0-0-0-0-0-0-0-0-3-3-3-3-3-3-3-3-3-3-3-3-5-5-5-5-5-5-5-5-5-5-5-5-----------------5h7-4---------
C|-0-0-0-0-0-0-0-0-0-0-0-0-3-3-3-3-3-3-3-3-3-3-3-3-5-5-5-5-5-5-5-5-5-5-5-5-------------------------------

D|---------------------------------------------------------------------------------------------------------
A|---------------------------------------------------------------------------------------------------------
F|-------------------------------------------------------------------------2-2-2-2-2-2-2-2-----------------
C|-------------------------------------------------------------------------0-0-0-0-0-0-0-0-7p5p0-7p5p0-7-5-
G|-0-0-0-0-0-0-0-0-0-0-0-0-3-3-3-3-3-3-3-3-3-3-3-3-5-5-5-5-5-5-5-5-5-5-5-5---------------------------------
C|-0-0-0-0-0-0-0-0-0-0-0-0-3-3-3-3-3-3-3-3-3-3-3-3-5-5-5-5-5-5-5-5-5-5-5-5---------------------------------



om todos aos seus pés ainda não percebeu
A sua vida é uma mentira
Que sempre escondeu
Me fez cair, mas vou me levantar
Acha que me venceu mas vou te ver sangrar

D|--------------------------------------------------------------------------------------------------------------
A|--------------------------------------------------------------------------------------------------------------
F|--------------------------------------------------------------------------------------------------------------
C|-3-3-3-3-3-3-3-3-3-3-3-3-3-3--5-5-5-5-5-5--x-6-6-6-6-6--------------------------------------------------------REpete 2X
G|-1-1-1-1-1-1-1-1-1-1-1-1-1-1--3-3-3-3-3-3--x-4-4-4-4-4-0-0-0-0-0-0-0-0-0-0-0-0-3-3-3-3-3-3-3-3-3-3-3-3-3------
C|-------------------------------------------------------0-0-0-0-0-0-0-0-0-0-0-0-3-3-3-3-3-3-3-3-3-3-3-3-3------

Melhor morrer do que ser alguém
Que crescer o olho em tudo
E não faz nada por ninguém
Melhor morrer do que ser você
Um parasita inútil que não vai sobreviver
Melhor morrer
melhor morrer
Seu bosta!

D|---------------------------------------------------------------------------------------------------------------------------
A|---------------------------------------------------------------------------------------------------------------------------
F|---------------------------------------------------------------------------------------------------------------------------REpete 2X
C|-----------------------------------------------------------5-------------------------------7-7-------------------4-7-4-----
G|-5-5---------------------------8-8---------------------5-7---4-4-------------------------------------------4-5-7-------4---
C|-----0-0-0-0-0-0-0-0-0-0-0-0-0-----0-0-0-0-0-0-0-0-0-0-----------0-0-0-0-0-0-0-0-0-0-0-0-0-----0-0-0-0-0-0-----------------
Compositor não encontrado.
Colaboração e revisão:
  • weliton
291 exibições
    • ½ Tom
    • A
    • Bb
    • B
    • C
    • Db
    • D
    • Eb
    • E
    • F
    • F#
    • G
    • Ab
  • Adicionar à lista

    0 comentários

    Ver todos os comentários

    Conseguiu tocar?

    0 Tocaram 0 Ainda não

    Grave um vídeo tocando Parasita e nos envie!

    00:00 / 00:00
    Outros vídeos desta música
    Repetir Qualidade Automático
    Outros vídeos desta música
    00:00 / 00:00
    Automático

    Cifra Club Pro

    Aproveite o Cifra Club com benefícios exclusivos e sem anúncios
    Cifra Club Pro
    Aproveite o Cifra Club com benefícios exclusivos e sem anúncios
    OK