Cifra Club

Aprenda

Peace Sells

Megadeth

Tab de baixo: Principal
Já pensou em usar uma coleção de roupas do Cifra Club? Responda as perguntas abaixo e nos ajude nessa missão! →
   Intro.                                             (x4)
G:---------------------------------------------------------|
D:*------------5-----------7--8------------5--------------*|
A:*--7---5--7--------7--5--------7---5--7--------7--------*|
E:----------------0---------------------------0-----5--6---|
                                                                 (x4)
G:--------------------------------------------------------------------|
D:*------------------------------------------------------------------*|
A:*-----7---------------7---------------7---------------7------------*|
E:--0-0---0-0-0-0-4-0-0---0-0-0-0-3-0-0---0-0-0-0-4-0-0---0-0-0-6-5---|

G:-------------------------------------------------------------------------|
D:-----------5-------------------5-----------------------------------------|
A:-7-7-5-7-------5-7-R-7-7-5-7----------------------5-------------------3--|
E:---------0-------------------0----2-3-R-3-3-2-3-0----r-2-3-3-3--3-2-1----|

                                                                 (x5)
G:--------------------------------------------------------------------|
D:*------------------------------------------------------------------*|
A:*-----7---------------7---------------7---------------7------------*|
E:--0-0---0-0-0-0-4-0-0---0-0-0-0-3-0-0---0-0-0-0-4-0-0---0-0-0-6-5---|

G:-------------------------------------------------------------------------|
D:-----------5-------------------5-----------------------------------------|
A:-7-7-5-7-------5-7-R-7-7-5-7----------------------5-------------------3--|
E:---------0-------------------0----2-3-R-3-3-2-3-0----r-2-3-3-3--3-2-1----|

G:---------------------------------------------------------------------------|
D:*--------------------------------------------------------------------------|
A:*-------------7------------------------------------------------------------|
E:--0--0--0--0-----0--0--0--0--0--0--0--0--0--0--0--0--0--0--0--0--0--0--0--0|

G:-----------------------|
D:----------------------*|
A:----------------------*|
E:--0--0--0--0--0--2--3--|

G:---------------------------------------------------------------------------|
D:---------------------------------------------------------------------------|
A:--------------------------------------------------------10p9-10--------9p7-|
E:--2--2--2--2--2--2--2--3--3--3--3--2--2--2--2--2--0--0-----------0--0------|

G:---------------------------------------------------------------------------|
D:---------------------------------------------------------------------------|
A:9--------7p5-7-------------------------------------------------------------|
E:---0--0---------0--0--3--2--2--2--2--2--2--2--2--3--3--3--3--2--2--2--2--2-|

G:---------------------------------------------------------------------------|
D:---------------------------------------------------------------------------|
A:-------10p9-10-------9p7-9--------7p5-7------------------------------------|
E:-0--0----------0--0---------0--0---------0--0--2--3--2--2--2--2--2--2--2--3|

G:---------------------------------------------------------------------------|
D:---------------------------------------------------------------------------|
A:--------------------------------10p9-10--------9p7-9--------7p5-7----------|
E:--3--3--3--2--2--2--2--2--0--0-----------0--0---------0--0---------0--0--2-|

G:-----------------------------------------------------------------------|
D:-----------------------------------------------------------------------|
A:----------------------------------------------5--6-----------------R---|
E:-3--2--2--2--2--2--2--2--3--3--3--3--2--2--2--------0------------------|

G:---------------------------------------------------------------------------|
D:---------------------------------------------------------------------------|
A:--7--5-7-----7--5--7--7--5-7-----7--5--7--7--5-7-----7--5--7--7--5-7-----7-|
E:----------0-------------------0-------------------0-------------------0----|

G:---------------------------------------------------------------------------|
D:---------------------------------------------------------------------------|
A:-5--7--7--5-7-----7--5--7--7--5-7----7--5--7--7--5-7-----7--5--7--7--5-7---|
E:---------------0-------------------0------------------0-------------------0|
              
G:-9-9-9-9-9p7--|
D:--------------|
A:--------------|
E:--------------|

G:------------------------------------------------------------------|
D:*----------------------------------------------------------------*|
A:*-----------------------------------------2---2--3--2--2--2--2---*|
E:---0--0--0-0-0--3--3--3-3-3--2--2--2-2-2--------------(3)(3)(3)---|
                                                     notes in parens
                                                      second time

G:---------------------------------------------------------------------------|
D:---------------------------------------------------------------------------|
A:-------------------------------------------2--2-2-2-2-2--------------------|
E:--0--0--0-0-0--3--3--3-3-3--2--2--2-2-2-2----------------0--0--0-0-0--3--3-|

G:---------------------------------------------------------------------------|
D:--------------------------------4--4---------------------------------------|
A:-----------------------2--2--2------------7--------------------------------|
E:-3-3-3--2--2--2-2-2-2------------------0-----0--0--0--3--3--3-3-3-3--2--2--|

G:---------------------------------------------------------------------------|
D:---------------------------------------------------------------------------|
A:-------2-2-2-2-2-2-2-2--------------------------------------------2-2-2--2-|
E:2-2-2-------------------0--0--0--0--3--3--3-3-3-3--2--2--2-2-2-2-----------|

G:-------------------------------------------------------------------|
D:-------------------------------------------------------------------|
A:3-2----------------------------------------------2-2-2---2-2-2-2---|
E:----3--0--0--0--0--3--3--3-3-3-3--2--2--2-2-2-2--------------------|

                                1.,2.

                               |~~~~~~~~~~~~~~~~~~~~~~~~~~~~~~~
G:--------------------------------------------------------------|
D:*------------------------------------------------------------*|
A:*--------------------------------------------2-2-2--2-3-2----*|
E:---0--0--0--0--3--3--3-3-3-3--2--2--2-2-2-2---------------3---|
   3.

  |~~~~~~~~~~~~
G:---------------------------------------------------------------------------|
D:---------------------------------------------------------------------------|
A:---------------2--2-2-2-2--------------------------------------------------|
E:--2--2--2-2-2-------------3--2-1-0-1-2-1-0-2-3-3-3-3-2-2-3-2-0--0--0--0--0-|

G:---------------------------------------------------------------------------|
D:---------------------------------------------------------------------------|
A:---------------------------------------------------------------------------|
E:-0--0--0-3-2-1-0-1-2-1-0-2-3-3-3-3-2-2-3-2-0--0--0--0--0--0--0--0-3-2-1-0-1|

G:---------------------------------------------------------------------------|
D:---------------------------------------------------------------------------|
A:-----------------------------------0-2-------------------------------------|
E:-2-1-0-2-3-3-3-3-2-2-3-2--0--0--0-------0--0--0--4-3-2-1-0-1-2-1-0-2-3-3-3-|

G:-----------|
D:-----------|
A:-----------|
E:3-2-2-3-2-0|

-==Versão 2==-

intro
G|---------------------------------------------------------------------------|
D|---------3----------------3-5h3--------------------------------------------|
A|--5-3h5----5-5-3----5-3h5-------5-3----------------------------------------|
E|-----------------5---------------------------------------------------------|

G|---------------------------------------------------------------------------|
D|---------------------------------------------------------------------------|
A|---------------------------------------------------------------------------|
E|-0-0-0-0-0-0-0-4--0-0-0-0-0-0-0-3--0-0-0-0-0-0-0-4--0-0-0-0-0-0-6-5--------|

G|---------------|----------------|
D|---------3-----|----------------|
A|-5-5-3-5---3-5-|----------3-----|
E|---------------|--3-3-2-3---2-3-|

G|---------------------------------------------------------------------------|
D|-----5p4h5-----4p2h4------2p0h2--------------------------------------------|
A|---------------------------------------------------------------------------|
E|-0-0-------0-0-------0-0--------0-0-3-2------------------------------------|

G|---------------------------------------------------------------------------|
D|---------------------------------------------------------------------------|
A|---------------------------------------------------2-2-2-2-2-2-2-2---------|
E|-0-0-0-0-0-0-0-0-0-3-3-3-3-3-3-3-3-2-2-2-2-2-2-2-2-------------------------|


| /  slide up
| \  slide down
| h  hammer-on
| p  pull-off
| ~  vibrato
| +  harmonic
| x  Mute note
Composição de Dave Mustaine
Colaboração e revisão:
  • Taino Vieira
14.663 exibições

0 comentários

Ver todos os comentários

Conseguiu tocar?

2 Tocaram 0 Ainda não

Grave um vídeo tocando Peace Sells e nos envie!

00:00 / 00:00
outros vídeos desta música
repetir qualidade Automático
Outros vídeos desta música
00:00 / 00:00
Automático

Cifra Club Pro

Aproveite o Cifra Club com benefícios exclusivos e sem anúncios
Cifra Club Pro
Aproveite o Cifra Club com benefícios exclusivos e sem anúncios
OK