Symphony of Destruction

Megadeth

Composição: Dave Mustaine
Tom: A
Intro:
            E5     E5            E5
E|-----------------------------------------
B|-----------------------------------------
G|-----------------------------------------
D|-----------------------------------------
A|--------3p2-2--3p2-2---------3p2-2-------
E|-1-3-1--1p0-0--1p0-0--1-3-1--1p0-0-------
   pm...                .....


(Primeira parte)
You take a mortal man,
And put him in control
Watch him become a god,
Watch peoples heads a'roll

Primeira parte:
     E5     E5            E5
E|-----------------------------------------
B|-----------------------------------------
G|-----------------------------------------
D|-----------------------------------------
A|-3p2-2--3p2-2---------3p2-2--------------
E|-1p0-0--1p0-0--1-3-1--1p0-0--------------
   pm...                .....


(Segunda parte)
A'roll...
(Guitarra 1)
E|-----------------------------------------
B|-----------------------------------------
G|-----------------------------------------
D|-----7---6---5---5h7-5-------------------
A|-----7---6---5---------------------------
E|-0-0---0---0---0-------------------------

E|-----------------------------------------
B|-----------------------------------------
G|-----------------------------------------
D|-7---6---5---5h7-5-----------------------
A|-7---6---5-------------------------------
E|---0---0---0-----------------------------

E|-----------------------------------------
B|-----------------------------------------
G|-----------------------------------------
D|-7---6---5-------------------------------
A|-7---6---5------5~-----------------------
E|---0---0---0--0----6-5-4-3-2-1-----------

(Guitarra 2)
E|-----------------------------------------
B|-----------------------------------------
G|-----------------------------------------
D|-----7---6---5---5h7-5-------------------
A|-----7---6---5---------------------------
E|-0-0---0---0---0-------------------------

E|-----------------------------------------
B|-----------------------------------------
G|-------------4h5-4-----------------------
D|-7---6---5-------------------------------
A|-7---6---5-------------------------------
E|---0---0---0-----------------------------

E|-----------------------------------------
B|-------------5h6-5-----------------------
G|-----------------------------------------
D|-7---6---5-------------------------------
A|-7---6---5-------------------------------
E|---0---0---0-----------------------------

                 D5
E|-----------------------------------------
B|-----------------------------------------
G|-----------------------------------------
D|-7---6---5-----7---8-7-6-5-4-3-----------
A|-7---6---5-----5-------------------------
E|---0---0---0-0---------------------------


Refrão:
E5
   Just like the Pied Piper
C5             D5
   Led rats through the streets
E5
   Dance like marionettes,
C5                 D5
   Swaying to the Symphony...
Of Destruction
Refrão:
   E5
E|-----------------------------------------
B|-----------------------------------------
G|-----------------------------------------
D|-----9------8------7------5/6------------
A|---7------7------7------7-----7----------
E|-0------0------0------0---------7--------

   E5            D5
E|-----------------------------------------
B|-----------------------------------------
G|-----------------------------------------
D|-----9------8------7------5/6------------
A|---7------7------5------5-----7----------
E|-0------0------0------0---------7--------

   C5            D5
E|-----------------------------------------
B|-----------------------------------------
G|-----------------------------------------
D|-----5------4------7-----5p4-------------
A|---3------3------7-----7-----5-----------
E|-0------0------0-----0----------7--------

   C5            D5
E|-----------------------------------------
B|-----------------------------------------
G|-----------------------------------------
D|-----5------4------7-7-7-7-7-------------
A|---3------3------5-5-5-5-5-5-------------
E|-0------0------0-------------------------
  pm                 .......
   E5
E|-----------------------------------------
B|-----------------------------------------
G|-----------------------------------------
D|-----9-------8-------7-------5/6---------
A|---7-7-----7-7-----7-7-----7-----7-------
E|-0---0---0---0---0---0---0---------7-----

(Guitarra 2)
E|-----------------------------------------
B|-----------------------------------------
G|------7-----6-----5------3/4-------------
D|-----------------------------6-----------
A|----7-----7------7-----7-------7---------
E|-0------0------0-----0-------------------

E|-----------------------------------------
B|-----------------------------------------
G|-----------7-----------------------------
D|---9---7---0--9h7------------------------
A|------------------9----------------------
E|-8---8--------------10-------------------

               D5
E|-----------------------------------------
B|-----------------------------------------
G|-----------------------------------------
D|---9---7-----7-7-7-7-7-------------------
A|-------------5-5-5-5-5-------------------
E|-8---8-----------------------------------
  pm           .......


(Primeira parte com variação na letra)
( F5  E5  F5  E5  F5  G5  F5  E5 )
Acting like a robot,
Its metal brain corrodes
You try to take its pulse,
Before the head explodes
Explodes...

Refrão:
E5
   Just like the Pied Piper
C5             D5
   Led rats through the streets
E5
   Dance like marionettes,
C5                 D5
   Swaying to the Symphony...
C5                 D5
   Swaying to the Symphony...
Of Destruction
Base do Solo:
E|-----------------------------------------
B|-----------------------------------------
G|-----------------------------------------
D|-----7---6---5---------------------------
A|-----7---6---5---------------------------
E|-0-0---0---0-----------------------------

Solo:
(Parte 1)
E|---------------------------------------------------
B|---------------------------------------------------
G|-/9~9-9-9-9--7/9-9-9\7---6~---7b8\3b~--------------
D|-----------------------9--------------5-7-5-7b9r7b-
A|---------------------------------------------------
E|---------------------------------------------------

E|---------------------------------------------------
B|---------------------------------------------------
G|---------------------------------------------------
D|-7b9r7p5-------------------------------------------
A|-----------7-5-7-----------------------------------
E|---------------------------------------------------

(Parte 2)
E|-------------------------8-12----8-12/14p12--------
B|----------------------10------10-------------------
G|--------9h11-----9h11------------------------------
D|-----10-------10-----------------------------------
A|---------------------------------------------------
E|---------------------------------------------------

(Parte 3)
E|----12-14--17p14p12----17/20--17h20p17p14----------
B|-13-----------------13-----------------------17-13-
G|---------------------------------------------------
D|---------------------------------------------------
A|---------------------------------------------------
E|---------------------------------------------------

(Parte 4)
E|---------------------------------------------------
B|-12p10----10-12p10----10-15p10----15p10----14p10---
G|-------12----------12----------12-------12---------
D|---------------------------------------------------
A|---------------------------------------------------
E|---------------------------------------------------

(Parte 5)
E|-12p10----10-12p10----10-15p10----15p10----14p10---
B|-------12----------12----------12-------12---------
G|---------------------------------------------------
D|---------------------------------------------------
A|---------------------------------------------------
E|---------------------------------------------------

(Parte 6)
E|-15p10----10--19p15----15--22p19----19-------------
B|-------12-----------15-----------20----20----------
G|------------------------------------------19\16----
D|------------------------------------------------17-
A|---------------------------------------------------
E|---------------------------------------------------

E|---------------------------------------------------
B|---------------------------------------------------
G|-19p16---------------------------------------------
D|-------17------------------------------------------
A|---------------------------------------------------
E|---------------------------------------------------

(Parte 7)
E|---------------------------------------------------
B|-------------------------------------12-13p12------
G|----------------14b--/15p12----12h15---------------
D|-12-14-12-11-12-------------14---------------------
A|---------------------------------------------------
E|---------------------------------------------------

(Parte 8)
E|----------------------12---------------------------
B|----------------12h13----13p12---------------------
G|-15p12----12h15-----------------15p12----12h14h15--
D|-------14-----------------------------14-----------
A|---------------------------------------------------
E|---------------------------------------------------

(Parte 9)
E|----12---------------------------------------------
B|-12----15p12---------------------------------------
G|-------------15p14p12----12b~----------------------
D|----------------------14---------------------------
A|---------------------------------------------------
E|---------------------------------------------------

(Parte 10)
E|-12---------------12-------------12----------------
B|----15-12--15b17-----15-12----------15p12----------
G|---------------------------14b16----------14b16----
D|---------------------------------------------------
A|---------------------------------------------------
E|---------------------------------------------------

(Parte 11)
E|-12-------------12-------------12------------------
B|----15p12----------15p12----------15p12-15---------
G|----------14b16----------14h16----------14h16------
D|---------------------------------------------------
A|---------------------------------------------------
E|---------------------------------------------------


(Primeira parte com variação na letra)
F5 E5 F5 E5 F5 G5 F5 E5
The earth starts to rumble
World powers fall
A'warring for the heavens,
A peaceful man stands tall

(Riff Segunda Parte)
Tall...

Refrão:
E5
   Just like the Pied Piper
C5             D5
   Led rats through the streets
E5
   Dance like marionettes,
C5                 D5
   Swaying to the Symphony...
C5                 D5
   Swaying to the Symphony...
Of Destruction
(Guitarra 1)
 C5              D5
E|-----------------------------------------
B|-----------------------------------------
G|-----------------------------------------
D|-----5------4------7-7-7-7-7-------------
A|---3------3------5-5-5-5-5-5--3p2-2------
E|-0------0------0--------------1p0-0------
pm                 .......

(Guitarra 2)
          D5
E|-----------------------------------------
B|-----------------------------------------
G|-----------------------------------------
D|---9---7--7-7-7-7-7----------------------
A|----------5-5-5-5-5--3p2-2---------------
E|-8---8---------------1p0-0---------------
pm        .......
Página 1 / 1

Letras e título
Acordes e artista

resetar configurações
OK