Cifra Club

Aprenda

Symphony of Destruction

Megadeth

Tab de baixo: Principal
Introdução 

Prelúdio Orquestra e Efeitos

Primeira parte

You take a mortal man...

parte 01

G|--------------------------------------------|
D|--------------------------------------------|
A|--------------------------------------------|
E|-1-3-1-1--0-0-0-0-0-0-0-1-0-0-0-0-1-3-1-1---|

G|--------------------------------------------|
D|--------------------------------------------|
A|--------------------------------------------|
E|-0-0-0-0-0-0-0--0-0-0-0--0-0-0-0------------|

Parte 02 ( tocar 2x )

G|--------------------------------------------|
D|--------------------------------------------|
A|--------------------------------------------|
E|-1-0-0-0-0-0-0-0--1-0-0-0-0-1-3-1-1---------|

G|--------------------------------------------|
D|--------------------------------------------|
A|--------------------------------------------|
E|-0-0-0-0-0-0-0--0-0-0-0--0-0-0-0------------|

Parte 03

G|--------------------------------------------|
D|--------------------------------------------|
A|--------------------------------------------|
E|-1-0-0-0-0-0-0-0--1-0-0-0-0-1-3-1-1---------|

G|--------------------------------------------|
D|--------------------------------------------|
A|--------------------------------------------|
E|-0-0-0-0-0-0-0--0-0-0-0--0-0-0--0-----------|

Parte 04

G|--------------------------------------------|
D|--------------------------------------------|
A|--------------------------------------------|
E|-0-0-0-0-0-0-0--0-0-0-0-0-0-0---------------|

G|--------------------------------------------|
D|--------------------------------------------|
A|--------------------------------------------|
E|-3--3-3-3-3-3-3-3--3-3-3-3-3-3-3------------|

Parte 05

G|--------------------------------------------|
D|--------------------------------------------|
A|-3--3-3-3-3-3-3-3--3-3-3-3-3-3-3------------|
E|--------------------------------------------|

G|--------------------------------------------|
D|----------------0---------------------------|
A|------------------2-1-----------------------|
E|-5--5-5-5-5-5-5-------4-3-2-1---------------|

Refrão 

Just like the Pied Piper...

parte 01

G|--------------------------------------------|
D|------------------------------2-------------|
A|----------------------------0---2-----------|
E|-0--0-0-0-0-2-2-2-3-3-3-4-4-----------------|

G|--------------------------------------------|
D|-------------------------5-4----------------|
A|-3-3-3-3--3-3-3-3--5-5-5-----5--------------|
E|-------------------------------7------------|

Parte 02

G|--------------------------------------------|
D|------------------------------2-------------|
A|----------------------------0---2-----------|
E|-0--0-0-0-0-2-2-2-3-3-3-4-4-----------------|

G|--------------------------------------------|
D|--------------------------------------------|
A|-3-3-3-3--3-3-3-3--5-5-5-5-5\---------------|
E|--------------------------------------------|

Segunda parte 

Acting like a robot...

Parte 01 (Tocar 3x )

G|--------------------------------------------|
D|--------------------------------------------|
A|--------------------------------------------|
E|-1-0-0-0-0-0-0-0--1-0-0-0-0-1-3-1-1---------|

G|--------------------------------------------|
D|--------------------------------------------|
A|--------------------------------------------|
E|-0-0-0-0-0-0-0--0-0-0-0--0-0-0-0------------|

Parte 03

G|--------------------------------------------|
D|--------------------------------------------|
A|--------------------------------------------|
E|-1-0-0-0-0-0-0-0--1-0-0-0-0-1-3-1-1---------|

G|--------------------------------------------|
D|--------------------------------------------|
A|--------------------------------------------|
E|-0-0-0-0-0-0-0--0-0-0-0--0-0-0--0-----------|

Parte 04

G|--------------------------------------------|
D|--------------------------------------------|
A|--------------------------------------------|
E|-0-0-0-0-0-0-0--0-0-0-0-0-0-0---------------|

G|--------------------------------------------|
D|--------------------------------------------|
A|--------------------------------------------|
E|-3--3-3-3-3-3-3-3--3-3-3-3-3-3-3------------|

Parte 05

G|--------------------------------------------|
D|--------------------------------------------|
A|-3--3-3-3-3-3-3-3--3-3-3-3-3-3-3------------|
E|--------------------------------------------|

G|--------------------------------------------|
D|----------------0---------------------------|
A|------------------2-1-----------------------|
E|-5--5-5-5-5-5-5-------4-3-2-1---------------|

Refrão 02

Just like the Pied Piper...

parte 01

G|--------------------------------------------|
D|------------------------------2-------------|
A|----------------------------0---2-----------|
E|-0--0-0-0-0-2-2-2-3-3-3-4-4-----------------|

G|--------------------------------------------|
D|-------------------------5-4----------------|
A|-3-3-3-3--3-3-3-3--5-5-5-----5--------------|
E|-------------------------------7------------|

Parte 02

G|--------------------------------------------|
D|------------------------------2-------------|
A|----------------------------0---2-----------|
E|-0--0-0-0-0-2-2-2-3-3-3-4-4-----------------|

G|--------------------------------------------|
D|--------------------------------------------|
A|-3-3-3-3--3-3-3-3--5-5-5-5-5\---------------|
E|--------------------------------------------|

Parte 03 

G|--------------------------------------------|
D|-----------2----------5-4-------------------|
A|---------0---2-3--3-5-----5-----------------|
E|-0-2-3-4--------------------7---------------|

Parte 04

G|--------------------------------------------|
D|-------------9-10-10-12-5-4-----------------|
A|-7-9-10-11------------------5---------------|
E|-----------12-----------------7-------------|

G|--------------------------------------------|
D|--------------------------------------------|
A|-3-3-3-3--3-3-3-3--5-5-5-5-5\---------------|
E|--------------------------------------------|

Solo de Guitarra

Parte 01

G|--------------------------------------------|
D|--------------------------------------------|
A|--------------------------------------------|
E|-0-0-0--0-0-0-0--0-0-0-0--0-0-0-0--0-0-0----|

G|--------------------------------------------|
D|--------------------------------------------|
A|--------------------------------------------|
E|-3--3-3-3-3-3-3-3--3-3-3-3-3-3-3------------|

Parte 02

G|--------------------------------------------|
D|--------------------------------------------|
A|-3--3-3-3-3-3-3--3--3-3-3-3-3-3-------------|
E|--------------------------------------------|

G|--------------------------------------------|
D|--------------------------------------------|
A|-0--0-0-0-0--0-0-0--0-0-0-0--0-0-0----------|
E|--------------------------------------------|

Parte 03

G|--------------------------------------------|
D|--------------------------------------------|
A|--------------------------------------------|
E|-0--0-0-0-0--0-0-0--0-0-0-0--0-0-0----------|

G|--------------------------------------------|
D|--------------------------------------------|
A|--------------------------------------------|
E|-3--3-3-3-3-3-3-3--3-3-3-3-3-3-3------------|

Parte 04

G|--------------------------------------------|
D|--------------------------------------------|
A|-3--3-3-3-3-3-3--3--3-3-3-3-3-3-------------|
E|--------------------------------------------|

G|--------------------------------------------|
D|--------------5h7-7-5-----------------------|
A|----------5h7---------7-6-5-----------------|
E|-5--5-5-5-------------------10-5-0----------|
 
Terceira parte

The earth starts to rumble...

Parte 01 (Tocar 3x )

G|--------------------------------------------|
D|--------------------------------------------|
A|--------------------------------------------|
E|-1-0-0-0-0-0-0-0--1-0-0-0-0-1-3-1-1---------|

G|--------------------------------------------|
D|--------------------------------------------|
A|--------------------------------------------|
E|-0-0-0-0-0-0-0--0-0-0-0--0-0-0-0------------|

Parte 03

G|--------------------------------------------|
D|--------------------------------------------|
A|--------------------------------------------|
E|-1-0-0-0-0-0-0-0--1-0-0-0-0-1-3-1-1---------|

G|--------------------------------------------|
D|--------------------------------------------|
A|--------------------------------------------|
E|-0-0-0-0-0-0-0--0-0-0-0--0-0-0--0-----------|

Parte 04

G|--------------------------------------------|
D|--------------------------------------------|
A|--------------------------------------------|
E|-0-0-0-0-0-0-0--0-0-0-0-0-0-0---------------|

G|--------------------------------------------|
D|--------------------------------------------|
A|--------------------------------------------|
E|-3--3-3-3-3-3-3-3--3-3-3-3-3-3-3------------|

Parte 05

G|--------------------------------------------|
D|--------------------------------------------|
A|-3--3-3-3-3-3-3-3--3-3-3-3-3-3-3------------|
E|--------------------------------------------|

G|--------------------------------------------|
D|----------------0---------------------------|
A|------------------2-1-----------------------|
E|-5--5-5-5-5-5-5-------4-3-2-1---------------|

Refrão 03

Just like the Pied Piper...

parte 01

G|--------------------------------------------|
D|------------------------------2-------------|
A|----------------------------0---2-----------|
E|-0--0-0-0-0-2-2-2-3-3-3-4-4-----------------|

G|--------------------------------------------|
D|-------------------------5-4----------------|
A|-3-3-3-3--3-3-3-3--5-5-5-----5--------------|
E|-------------------------------7------------|

Parte 02

G|--------------------------------------------|
D|------------------------------2-------------|
A|----------------------------0---2-----------|
E|-0--0-0-0-0-2-2-2-3-3-3-4-4-----------------|

G|--------------------------------------------|
D|--------------------------------------------|
A|-3-3-3-3--3-3-3-3--5-5-5-5-5\---------------|
E|--------------------------------------------|

Parte 03 

G|--------------------------------------------|
D|-----------2----------5-4-------------------|
A|---------0---2-3--3-5-----5-----------------|
E|-0-2-3-4--------------------7---------------|

Parte 04

G|--------------------------------------------|
D|-------------9-10-10-12-5-4-----------------|
A|-7-9-10-11------------------5---------------|
E|-----------12-----------------7-------------|

G|--------------------------------------------|
D|--------------------------------------------|
A|-3-3-3-3--3-3-3-3--5-5-5-5-5\---------------|
E|--------------------------------------------|

G|--------------------------------------------|
D|--------------------------------------------|
A|--------------------------------------------|
E|-1-0-0--------------------------------------|
Composição de Dave Mustaine
Colaboração e revisão:
  • Reginaldo Costa
  • victor neres
39.314 exibições

0 comentários

Mostrar mais comentários

Conseguiu tocar?

7 Tocaram 0 Ainda não

Grave um vídeo tocando Symphony of Destruction e mande pra gente!

00:00 / 00:00
outros vídeos desta música
repetir qualidade Automático
Outros vídeos desta música
00:00 / 00:00
Automático
Capítulos
  • Tocando a música
  • Dicas Iniciais / Equipamentos
  • Primeira Parte - Parte 1 de 5
  • Primeira Parte - Parte 2 de 5
  • Primeira Parte - Parte 3 de 5
  • Primeira Parte - Parte 4 de 5
  • Primeira Parte - Parte 5 de 5
  • Primeiro Refrão - Parte 1 de 2
  • Primeiro Refrão - Parte 2 de 2
  • Dicas 2
  • Segundo Refrão - Parte 1 de 4
  • Segundo Refrão - Parte 2 de 4
  • Segundo Refrão - Parte 3 de 4
  • Segundo Refrão - Parte 4 de 4
  • Solo de Guitarra - Parte 1 de 4
  • Solo de Guitarra - Parte 2 de 4
  • Solo de Guitarra - Parte 3 de 4
  • Solo de Guitarra - Parte 4 de 4
  • Terceiro Refrão - Parte 1 de 4
  • Terceiro Refrão - Parte 2 de 4
  • Terceiro Refrão - Parte 3 de 4
  • Terceiro Refrão - Parte 4 de 4
  • Encerramento
  • Ficha Técnica
OK