Cifra Club

Canción de Las Simples Cosas

Mercedes Sosa

Cifra: Versão 4 (violão e guitarra)
tom: Am
Introducción del Concierto Acústico Suiza 1980,
guitarra por "Nicolas Colacho Brizuela"

E|--13-15-13-12----12---------------------------------|
B|--------------15----15-13-12-13-12-10----10---------|
G|--------------------------------------12----12-10-9-|
D|----------------------------------------------------|
A|----------------------------------------------------|
E|----------------------------------------------------|

E|-------------------------------------------------7---10---12---|
B|---------------------------------------------9-----9----9------|
G|-9h10-9h10-9h10-9h10-9h10-9h10-9h10-9h10---9---9---------------|
D|---------------------------------------------------------------|
A|---------------------------------------------------------------|
E|-8-------------------7-------------------0---------------------|

Arreglo de estribillo

"...Donde encontraras,con el pan al sol, la mesa tendida"
E|-8------7-----5---4-----4-----4---7-----8-----7----5-----5----5-----|
B|---10-----6-----4---3-----3-----3---6-----6-----6----5-----5----5---|
G|------9-----7---------4-----4---------7-----7----------5-----5------|
D|-7------5-----3---2-----2---------6-----------6---------------------|
A|--------------------------------------------------------------------|
E|---------------------------------------------------5----------------|
Composição de Armando Tejada Gomez / Cesar Isella
11 exibições
    • ½ Tom
    • Am
    • Bbm
    • Bm
    • Cm
    • C#m
    • Dm
    • Ebm
    • Em
    • Fm
    • F#m
    • Gm
    • G#m
  • Adicionar à lista

    0 comentários

    Ver todos os comentários

    Conseguiu tocar?

    0 Tocaram 0 Ainda não

    Grave um vídeo tocando Canción de Las Simples Cosas e nos envie!

    00:00 / 00:00
    Outros vídeos desta música
    Repetir Qualidade Automático
    Outros vídeos desta música
    00:00 / 00:00
    Automático

    Cifra Club Pro

    Aproveite o Cifra Club com benefícios exclusivos e sem anúncios
    Cifra Club Pro
    Aproveite o Cifra Club com benefícios exclusivos e sem anúncios
    OK