Graveyard Intro

Mest

tom: C
Got bored one day and figured it out. This is only for Guitar One in the song. Listen to 
song for exact timing.

E|10-10------10-10-------10-10----10-10--------|
A|-----8-7-8-------8-7-8------8-8------8-8-----|
D|-----------------------------9--------9------|    2x
G|---------------------------------------------|
B|---------------------------------------------|
E|---------------------------------------------|

E|10-10------10-10-------10-----|
A|-----8-7-8-------8-7-8----8---|
D|----------------------------9-|
G|------------------------------|
B|------------------------------|
E|------------------------------|
Página 1 / 1

Letras e título
Acordes e artista

resetar configurações
OK