Take Me Away Cried Out To Heaven

Mest

tom: A
Tabbed by: Michael
Email: HeavyD*

Tuning: Standard


INTRO
Rhythm Guitar-Tony
e|------------------------------------|
B|------------------------------------|
G|--------------7---------------------| X2
D|--777-7---2---7(ring out)-----------| 
A|--777-5---2---5---------------------|
E|--555-5---0-------------------------|
   FAST

INTRO
Lead Guitar-Jeremiah
e|------------------------------------|
B|------------------101010---(Ska-----|
G|--------------7----9-9-9-Upstroke)--| X2
D|--777-7---2---7---------------------| 
A|--777-5---2---5---------------------|
E|--555-5---0-------------------------|
   FAST

VERSE
Rhythm Guitar-Tony
*Silent*

VERSE
Lead Guitar-Jeremiah
e|------------------------------------|
B|--10-9-7777--10-9-10101010----------|
G|---9-9-9999---9-9--9-9-9-9----------| X3
D|------------------------------------|
A|-------(Ska Upstroke)---------------|
E|------------------------------------|

e|------------------------------------|
B|--10-9-777-77
Página 1 / 1

Letras e título
Acordes e artista

resetar configurações
OK