Cifra Club

Aprenda

Não Há Outro Igual

Metal Nobre

Cifra: Principal (violão e guitarra)
tom: F#
Intro: B F#  B F#    D#m C#  B F# B F#
      ( B F#  B F#    D#m C#  B F# C# )

E|--------------------------------------------------------------------
B|--------------------------------------------------------------------
G|--------------11-13~---11-13b~~---------------11--13---11-13b~------
D|--/11--13----------------------------/11--13------------------------
A|--------------------------------------------------------------------
E|--------------------------------------------------------------------

E|-------11--13-13b14---13h14p13--13--11------------------------------
B|---11-----------------------------------14-14b-p11------------------
G|----------------------------------------------------11~~------------
D|--------------------------------------------------------------------
A|--------------------------------------------------------------------
E|--------------------------------------------------------------------

E|--------------------------------------------------------------------
B|------------------------------------------------------14------------
G|-------------11--13~---11-13b~~---------------11-13~------13b~------
D|--/11--13-----------------------------/11--13-----------------------
A|--------------------------------------------------------------------
E|--------------------------------------------------------------------

E|-------11--13-13b14---13h14p13--13--11-----17b18-----19b------------
B|---11----------------------------------14----------18---------------
G|--------------------------------------------------------------------
D|--------------------------------------------------------------------
A|--------------------------------------------------------------------
E|--------------------------------------------------------------------

              B      F#
Eu quero Teu amor em mim
              B         F#
Preciso o Teu toque sentir
                  B      F#      C#
Me leve mais pra perto de Ti, Senhor
                 B     F#
Contigo eu quero caminhar
                   B        F#
Voar por entre as nuvens do céu
             B        F#       C#
Olhar a Tua face e Te ver, sorrir

Refrão:
        D#m     B
Tu és o meu Senhor
      F#     C#
És a vida em mim
           D#m     B     C#
E para o Teu louvor, nasci
        D#m     B
Tu és o meu Senhor
     F#      C#
És o único Deus
                G#m       C#
E não há outro igual, a Ti

Solo: D#m B   F# C#   D#m B  C#  2x

              G#m            C#
Não, não há outro igual, a Ti
         G#m            C#
Não há outro igual, a Ti

Solo:
E|--------------------------------------------------------------------
B|------------------------------------------9/11\9\7/9\4--------------
G|-----8--10-10b11r10p8\-/8-------------------------------------------
D|--8------------------------8--9--11/6-----6/8\6\4/6\1---------------
A|------------------------------------------8/10\8\6/8\4--------------
E|--------------------------------------------------------------------

E|--------------------------------------------------------------------
B|--------------------------------------------------------------------
G|-----6-6--6-6h8p6----10h11p10--------16-----16--18-18b19r18-16------
D|--8------8---------11------------15------15--------------------18b\-
A|--------------------------------------------------------------------
E|--------------------------------------------------------------------

E|----------------------------------------------16-18b19r18-16p14h16~~
B|-/11-12-14--------------------------------16h18h19------------------
G|-----------13--13b15r13p11h13b~-------15h16h18----------------------
D|---------------------------------16h18------------------------------
A|-------------------------------18-----------------------------------
E|--------------------------------------------------------------------
Colaboração e revisão:
  • Carlos Eduardo
8.803 exibições
    • ½ Tom
    • A
    • Bb
    • B
    • C
    • Db
    • D
    • Eb
    • E
    • F
    • F#
    • G
    • Ab
  • Adicionar à lista

    0 comentários

    Ver todos os comentários

    Conseguiu tocar?

    0 Tocaram 0 Ainda não

    Grave um vídeo tocando Não Há Outro Igual e nos envie!

    00:00 / 00:00
    outros vídeos desta música
    repetir qualidade Automático
    Outros vídeos desta música
    00:00 / 00:00
    Automático

    Cifra Club Pro

    Aproveite o Cifra Club com benefícios exclusivos e sem anúncios
    Cifra Club Pro
    Aproveite o Cifra Club com benefícios exclusivos e sem anúncios
    OK