Cifra Club

Ain't My Bitch

Metallica

Cifra: Principal
exibições 28.100
Tom: E
Intro

|----------|---------------------|---------------------------|
|----------|---------------------|---------------------------|
|----------|---------------------|---------------------------|
|----------|--------5------------|---------------------------|
|---5---7--|--------5------5--6--|--7--7--7---7---7----7--5--|
|---0---0--|----0---3------0--0--|--0--0--0---0---0----0--0--|

|------------------------|----------------------|---------------------|
|------------------------|----------------------|---------------------|
|---------~~~~~----------|----------------------|---------------------|
|--------5---------------|----------------------|--------5------------|
|--7--7--------7---7--5--|--7--7--7---7---5--7--|--------5------5--6--|
|--0--0--------0---0--0--|--0--0--0---0---0--0--|----0---3------0--0--|

|---------------------------|------------------------|----------------------|
|---------------------------|------------------------|----------------------|
|---------------------------|---------~~~~~----------|----------------------|
|---------------------------|--------5---------------|----------------------|
|--7--7--7---7---7----7--5--|--7--7--------7---7--5--|--7--7--7---7---5--7--|
|--0--0--0---0---0----0--0--|--0--0--------0---0--0--|--0--0--0---0---0--0--|


                       Rhy Fig 1
|---------------------|--------------------------|-------------------------|
|---------------------|--------------------------|-------------------------|
|---------------------|--------------------------|-------------------------|
|--------5------------|--------------------------|--------5~-~-------------|
|--------5------5--6--|--7--7--7-----7-----7--5--|--7--7-------7-----7--5--|
|----0---3------0--0--|--0--0--0--0--0--0--0--0--|--0--0-------0--0--0--0--|


                                    end Rhy Fig 1
|--------------------------|---------------------|
|--------------------------|---------------------|
|--------------------------|---------------------|
|--------------------------|--------5------------|
|--7--7--7-----7-----5--7--|--------5------5--6--|
|--0--0--0--0--0--0--0--0--|--0--0--3------0--0--|


 w/ Rhy Fig 1 (2 times)
|--------------------------|-------------------------|
|--------------------------|-------------------------|
|--------------------------|-------------------------|
|--------------------------|--------5~-~-------------|
|--7--7--7-----7-----7--5--|--7--7-------7-----7--5--|
|--0--0--0--0--0--0--0--0--|--0--0-------0--0--0--0--|

|--------------------------|---------------------|
|--------------------------|---------------------|
|--------------------------|---------------------|
|--------------------------|--------5------------|
|--7--7--7-----7-----5--7--|--------5------5--7--|
|--0--0--0--0--0--0--0--0--|--0--0--3------------|

|-------------------------------|--------------------------------|
|-------------------------------|--------------------------------|
|--------------1/4 Bend---------|--------------1/4 Bend----------|
|--5------7-------5-------------|--5------7-------5--------------|
|-----7-------7------7---5---7--|-----7-------7-------7---5---7--|
|-------------------------------|--------------------------------|

|-------------------------------|----------------------|
|-------------------------------|----------------------|
|--------------1/4 Bend---------|----------------------|
|--5------7-------5-------------|--5------5~-~-~-------|
|-----7-------7------7---5---7--|-----7----------5--7--|
|-------------------------------|----------------------|

|-------------------------------|----------------------------------|
|-------------------------------|---------------1/4 Bend-----------|
|--------------1/4 Bend---------|--12------14------12--------------|
|--5------7-------5-----12--14--|------14------14------14--12--14--|
|-----7-------7------7----------|----------------------------------|
|-------------------------------|----------------------------------|

|----------------------------------|---------------------|
|----------14---1/4 Bend-----------|----------12b14------|
|--12------14------12--------------|--12------12b13------|
|------14------14------14--12--14--|------14-------------|
|----------------------------------|---------------------|
|----------------------------------|---------------------|


Verse

e--------------------------------------------------|
B--------------------------------------------------|
G--------------------------------------------------|  Then
D--------------------------------------------------|
A---5--6--7---7---7---7------7------7---5---7---7--|
E---0--0--0---0---0---0------0------0---0---0---0--|
       Outta my way....
  

e--------------------------------------------------------------------------|
B--------------------------------------------------------------------------|
G--~~~~~-------------------------------------------------------------------|
D--5----------------------------------------------------------------5------|
A---------7------7---5----7----7----7------7------5----7------------5------|
E---------0------0---0----0----0----0------0------0----0--------0---3------|

e--------------------------------------------------|
B--------------------------------------------------|  Then
G--------------------------------------------------|
D---5--6--7---7---7---7------7------7---5---7---7--|
A---0--0--0---0---0---0------0------0---0---0---0--|
E--------------------------------------------------|
              Head strong....       

e--------------------------------------------------------------------------|
B--~~~~~-------------------------------------------------------------------|
G--5-----------------------------------------------------------------------|
D---------7------7---5----7----7----7------7------5----7------------5------|
A---------0------0---0----0----0----0------0------0----0--------0---5------|
E-------------------------------------------------------------------3------|

e------------------------------------------------------------------|
B------------------------------------------------------------------|
G------------------------------------------------------------------|
D---2--------------------------------------------------------------|
A---2--------------------------------------------------------------|
E---0--------------------------------------------------------------|
    You arrived....

e-------------------------------------------------------------|
B-------------------------------------------------------------|
G-------------------------------------------------------------|
D------------2--2--2--2--2--2--2--2--2--2--2--2--2--2--2--2---|
A------------2--2--2--2--2--2--2--2--2--2--2--2--2--2--2--2---|
E------------0--0--0--0--0--0--0--0--0--0--0--0--0--0--0--0---|
  goodbye...

Chorus

e-----------------------------------------------------------------------|
B-----------------------------------------------------------------------|
G----4------------------2-----------------------------------------------|
D----4------------------2--------------------5--------------------------|
A----2------------------0--------------------5---------------5---4---3--|
E--------------------------------------------3---------------3---2---1--|
     Draggin' me down... 

e---------------------------------------------------------------------------|
B---------------------------------------------------------------------------|
G---------------------------------------------------------------------------|
D---------------------------------------------------------------------------|
A-------------/P\--------------/P\--------/P\--------------/P\--------/P\---|
E-0--0--0--0--3-0--0--0--0--0--3-0--0--0--3-0--0--0--0--0--3-0--0--0--3-0---|
    So useless....

e--------------0------------------0--------------------0--------------------|
B----------0------------------0--------------------0------------------------|
G----4------------------2---------------------------------------------------|
D----4------------------2--------------------5------------------------------|
A----2------------------0--------------------5---------------5---4---3---2--|
E--------------------------------------------3---------------3---2---1---0--|
     It ain't my fall....

In bit before solo (variation of above)

e-------------------------------------|
B-------------------------------------|
G-----------------Full--1/4Bend-------|
D----------5---7---7------5-----------|
A--5---7----------------------7-------|
E-------------------------------------|


Guitar Solo

   w/ slide
|--------------|---------------------------|-----------------------------|
|--------------|------------/sl\-----------|------------------/sl\----11-|
|--4/-----sl---|--/11------11---9------11--|--(11)-~--(11)-\-9---11------|
|--4/-----sl---|--/11--------------11------|-----------------------------|
|--------------|---------------------------|-----------------------------|
|--------------|---------------------------|-----------------------------|

                                              /sl\ /sl\        /sl\/sl\  
|-----------------------------|-----------------|---------14--------------14------|
|-(11)--(11)\----/11--12--13--|-/14----------14-|-12--14------14--12--14------14\-|
|-(11)--(11)\-----------------|-----------------|---------------------------------|
|-----------------------------|-----------------|---------------------------------|
|-----------------------------|-----------------|---------------------------------|
|-----------------------------|-----------------|---------------------------------|

    /sl\       /sl\/sl\        /sl\ /sl\        /sl\/sl\
|----------14--------------14----|----------14--------------14----|
|-\12--14-----14--12--14------14-|-12--14------14--12--14---------|
|--------------------------------|--------------------------------|
|--------------------------------|--------------------------------|
|--------------------------------|--------------------------------|
|--------------------------------|--------------------------------|

|--14/------------/17-~----(17)\--|-------16-~--------16--------|
|--14/----------------------------|--/16-------16-~-~-----16-~--|
|---------------------------------|-----------------------------|
|---------------------------------|-----------------------------|
|---------------------------------|-----------------------------|
|---------------------------------|-----------------------------|
 
 
|--------16--------16------|-/19-------------------|-------------------|
|--16-~-----16-~------16\--|------19\--------/12-~-|-(12)-~-----(12)\--|
|--------------------------|------------/9\--------|-------------------|
|--------------------------|-----------------------|-------------------|
|--------------------------|-----------------------|-------------------|
|--------------------------|-----------------------|-------------------|


    /sl\    /sl\        /sl\    /sl\
|------------------|-----------11--14-~-~---(14)\--|
|-/7---5----9--7---|---12--11----------------------|
|------------------|-------------------------------|
|------------------|-------------------------------|
|------------------|-------------------------------|
|------------------|-------------------------------|



    /sl\    /sl\       /sl\     /sl\
|------------------|-----------11--14----14\--/19\--|
|--/7---5---9--7---|--12--11------------------------|
|------------------|--------------------------------|
|------------------|--------------------------------|
|------------------|--------------------------------|
|------------------|--------------------------------|

                                                                             let ring
|--/19--(19)-~-~--|--(19)-~-----(19)\--|-/19\----/12\----|----------------------------|
|-----------------|--------------------|-----------------|-/12\----7/--sl--/9---------|
|-----------------|--------------------|-----------------|---------7/--sl--/9---------|
|-----------------|--------------------|-----------------|----------------------------|
|-----------------|--------------------|-----------------|----------------------------|
|-----------------|--------------------|-----------------|----------------------------|


Lyrics
======

Outta my way
Outta my day
Outta your mind and into mine

Into no one
Into not one
Into your step but outta time

Head strong
What's wrong
I've already heard this song before, you arrived,
But now it's time to kiss your ass goodbye

Chorus
------

Draggin' me down
Why you around
So useless 
It ain't my fall
It ain't my call
It ain't my bitch

Down on the sun
Down and no fun
Down and out, where the hell ya been?

Damn it on down
Damn it unbound
Damn it all to hell again

Stand tall
Can't fall
Never really bend at all before, you arrived,
But now it's time to kiss your ass goodbye

Chorus
------

Draggin' me down
Why you around
So useless 
It ain't my fall
It ain't my call
It ain't my bitch

Guitar Solo

Outta my way
Outta my day
Outta your mind and into mine

Into no one
Into not one
Into your step but outta time

Head strong
What's wrong
I've already heard this song before, you arrived,
But now it's time to kiss your ass goodbye

Chorus
------

Draggin' me down
Why you around
So useless 
It ain't my fall
It ain't my call
It ain't my bitch, oh

No way but down
Why you around?
No foolin'
It ain't my smile
It ain't my style
It ain't my bitch
No, it ain't mine

Ain't mine
Your kind
Your steppin' outta time

Ain't mine
Your kind
Your steppin' outta time

Draggin' me down
Why you around
So useless 
It ain't my fall
It ain't my call
It ain't my, ooh, bitch,
It ain't my...

Explanation

/ = slide up
\ = slide down
Full = bend
sl = slide
/P\ = pull-off
/H\ = hammer-on
Acordes para:
    Composição: James Hetfield / Lars UlrichColaboração e revisão:
    • Lucas Luis

    0 comentários

      mostrar mais comentários

      Conseguiu tocar?

      0tocaram0ainda não

      Grave um vídeo tocando Ain't My Bitch e mande pra gente!

      00:00 / 00:00
      outros vídeos desta música
      repetirqualidadeautomática
      Outro vídeos desta música
        00:00 / 00:00
        automática
        OK