Cifra Club

Black Friday Cifra Club

All Within My Hands

Metallica

Cifra: Versão 6 (violão e guitarra)
tom: A
(riff 1)
E|-----------------------------------------------------------------------------
B|--3---3-3---3-3-3----3---3-3---3-3-3----1---1-1---1-1-1----3-3-3-3-3-3-0-----
G|--2---2-2---2-2-2----1---1-1---1-1-1----0---0-0---0-0-0----3-3-3-3-3-3-0-----
D|--0---0-0---0-0-0----0---0-0---0-0-0----0---0-0---0-0-0----0-0-0-0-0-0-0-----
A|-----------------------------------------------------------------------------
E|-----------------------------------------------------------------------------

(riff 2)
E|-----------------------------------------------------------------------------
B|------3-------3-------3-------3-------3-------3-------3-------3--------------
G|----2---2---2---2---1---1---1---1---5---5---5---5---3---3---3---3------------
D|--0-------0-------0-------0-------0-------0-------0-------0------------------
A|-----------------------------------------------------------------------------
E|-----------------------------------------------------------------------------

(riff 3)
E|-------------------------------------------
B|-------------------------------------------
G|-------------------------------------------
D|--4-5-6------5-6-2----5br-2-4-5br-2--------
A|--2-3-4-5----3-4-0----3br-0-2-3br-0--------
E|--------3----------------------------------

(riff 4)
E|-----------------------------------------
B|-----------------------------------------
G|--7--7-7---9---4---7--7-7---9-9-x--4-4-x-
D|--7--7-7---7---4---7--7-7---7-7-x--4-4-x-
A|--5--5-5---5---3---5--5-5---5-5-x--3-3-x-
E|-----------------------------------------

(riff 5)
 |____________3x_____________|
E|---------------------------|--------------------
B|---------------------------|--------------------
G|o--7--7-7---9-9-x--4-4-x--o|--------------------
D|o--7--7-7---7-7-x--4-4-x--o|--7---5---3---2-----
A|---5--5-5---5-5-x--3-3-x---|--7---5---3---2-----
E|---------------------------|--5---3---1---0-----

(solo)
E|-------------------------------------------------------10---8-7---10-8--7----
B|--------------------------------------------------------------------------10-
G|---9b-9b-7b------------------------------------------------------------------
D|---7b-7b-9b--7h9-9-9p7--7-7-7h9-9-9-9p7-7-7-7h9-9-9--------------------------
A|-----------------------------------------------------------------------------
E|-----------------------------------------------------------------------------

E|--8-7------------------------------------------------------------------------
B|-------10-8-7---8-7--8---8---------------------------------------------------
G|--------------9--------9---9-7-6-----------6-7-6-7-9---9b-9b-9b--------------
D|---------------------------------9-7-5-7-9-------------7b-7b-7b--7h9--7--7h9-
A|-----------------------------------------------------------------------------
E|-----------------------------------------------------------------------------

E|-----------------------------------------------------------------------------
B|---------------------------10-8-7--10-8-7--10-8-7--10-8-7-8-8-8-8s10-10-10-10
G|-----------------------------------------------------------------------------
D|--9p7-7-7h9-9-9p7-7h9-9-9----------------------------------------------------
A|-----------------------------------------------------------------------------
E|-----------------------------------------------------------------------------

E|-----------------------------------------------------------------------------
B|--12-12-12-12s-13-13-13-13~~-------------------------------------------------
G|-----------------------------------------------------------------------------
D|-----------------------------------------------------------------------------
A|-----------------------------------------------------------------------------
E|-----------------------------------------------------------------------------

(intro - riff 1 - 2x)

(riff 1 - 4x)
All within my hands
Squeeze it in, crush it down
All within my hands
Hold it dear, hold it suffocate

All within my hands
Love to death
Smack you 'round and round and
All within my hands
Beware

(riff 2 - 3x)

Love is control, I'll die if I let go

(riff 3 - 6x)

Hate me now, kill all within my hands
Hate me now, crush all within my hands
Hate me now, choke all within my hands
Hate me now, kill all within my hands again

(riff 1 - 6x)

All within my hands
Take your fear, pump me up
All within my hands
Let you run, then I pull your leash

All within my hands
Under thumb, under to myself
All within my hands
Beware

(riff 2 - 3x)

Love is control, I'll die if I let go

(riff 3 - 6x)

Hate me now, kill all within my hands
Hate me now, crush all within my hands
Hate me now, choke all within my hands
Hate me now, kill all within my hands again

(riff 4 - 4x)

(riff 5 - 2x)

I will only let you breathe
My air that you receive
Then we'll see if I let you love me

(solo)

(riff 5 - 2x)

I will only let you breathe
My air that you receive
Then we'll see if I let you love me

(riff 1 - 6x)

All within my hands
Squeeze it in, crush it down
All within my hands
Hold it dear, hold it suffocate

All within my hands
Love to death
Smack you 'round and round and
All within my hands
Beware

(riff 2 - 3x)

Love is control, I'll die if I let go
00:00 / 00:00
Outros vídeos desta música
Repetir
Outros vídeos desta música
Composição de Bob Rock / James Hetfield / Kirk Hammett / Lars Ulrich
Colaboração e revisão:
  • Edwin Kimura
84 exibições
    • ½ Tom
    • A
    • Bb
    • B
    • C
    • Db
    • D
    • Eb
    • E
    • F
    • F#
    • G
    • Ab
  • Adicionar à lista

    0 comentários

    Ver todos os comentários

    Conseguiu tocar?

    0 Tocaram 0 Ainda não

    Grave um vídeo tocando All Within My Hands e nos envie!

    Entre para oCifra Club PRO

    Tenha acesso a benefícios exclusivos no App e no Site

    • Chega de anúncios

    • Prioridade de compra em lançamentos

    • Mais recursos no app do Afinador

    • Atendimento Prioritário

    • Descontos nos produtos Cifra Club

    • Ajude a produzir mais conteúdo

    00:00 / 00:00

    Cifra Club Pro

    Aproveite o Cifra Club com benefícios exclusivos e sem anúncios
    Cifra Club Pro
    Aproveite o Cifra Club com benefícios exclusivos e sem anúncios
    OK