Cifra Club

Attitude

Metallica

Tab de baixo: Principal
exibições 342
      W                   W                   W                 
F#||-------------------|-------------------|-------------------|
C#||-------------------|-------------------|-------------------|
G#||-------------------|-------------------|-------------------|
D#||-------------------|-------------------|-------------------|

  E  E  E  E  E  E  E  E     W                   W                 
--------------------------|-------------------|-------------------|
--------------------------|-------------------|-------------------|
-----------------------0--|--L----------------|--L----------------|
--0--3-----3-----3--------|-------------------|-------------------|

  W                   W                   W                 
-------------------|-------------------|-------------------|
-------------------|-------------------|-------------------|
--L----------------|--L----------------|--L----------------|
-------------------|-------------------|-------------------|

  H.           E  E     E  E  E  E  E  E  E  E     E  E  E  E  E  E  E  E   
---------------------|--------------------------|--------------------------|
---------------------|--------------------------|--------------------------|
--L---------------7--|--L--------------------7--|--L--------------------7--|
---------------0-----|-----0--0--0--0--0--0-----|-----0--0--0--0--0--0-----|

  E  E  E  E  E  E  E  E     E  E  E  E  E  E  E  E   
--------------------------|--------------------------|
--------------------------|--------------------------|
--L-----------------------|-----0--0--------5-----7--|
-----0--0--0--0--0--0--3--|--L--------0--5-----------|

  E  E  E  E  E  E  E  E     E  E  E  E  E  E  E  E   
--------------------------|--------------------------|
--------------------------|--------------------------|
--L--------------------7--|--L--------------------7--|
-----0--0--0--0--0--0-----|-----0--0--0--0--0--0-----|

  E  E  E  E  E  E  E  E     E  E  E  E  E  E  E  E   
--------------------------|--------------------------|
--------------------------|--------------------------|
--L-----------------------|-----0--0--------5-----7--|
-----0--0--0--0--0--0--3--|--L--------0--5-----------|

  E  E  E  E  E  E  E  E     E  E  E  E  E  E  E  E   
--------------------------|--------------------------|
--------------------------|--------------------------|
--L--------------------7--|--L--------------------7--|
-----0--0--0--0--0--0-----|-----0--0--0--0--0--0-----|

  E  E  E  E  E  E  E  E     E  E  E  E  E  E  E  E   
--------------------------|--------------------------|
--------------------------|--------------------------|
--L-----------------------|-----0--0--------5-----7--|
-----0--0--0--0--0--0--3--|--L--------0--5-----------|

  E  E  E  E  E  E  E  E     E  E  E  E  E  E  E  E   
--------------------------|--------------------------|
--------------------------|--------------------------|
--L--------------------7--|--L--------------------7--|
-----0--0--0--0--0--0-----|-----0--0--0--0--0--0-----|

  E  E  E  E  E  E  E  E     E  E  E  E  E  E  E  E   
--------------------------|--------------------------|
--------------------------|--------------------------|
--L-----------------------|-----0--0--------5-----7--|
-----0--0--0--0--0--0--3--|--L--------0--5-----------|

  E  E  E  E  E  E  E  E     E  E  E  E  E  E  E  E     E  E  Q    Q    E  E   
--------------------------|--------------------------|------------------------|
--------------------------|--------------------------|------------------------|
--L-----------------------|--------------------------|--1---------------------|
-----0--0--0--0--0--0--0--|--0--0--0--0--0--0--0--3--|-----3--0----0----0--0--|

  E  E  E  Q    E  E  E     E  E  Q    Q   E  E     E  E  E  Q    E  E  E   
-------------------------|------------------------|-------------------------|
-------------------------|------------------------|-------------------------|
--0--0--0----------------|--1---------------------|-----------0-------------|
-----------3----0--0--3--|-----3--0----0----0--0--|--3--3--3-------0--0--3--|

  E  E  Q    Q    E  E     E  E  E  Q    E  E  E     E  E  Q    Q    E  E   
------------------------|-------------------------|------------------------|
------------------------|-------------------------|------------------------|
--1---------------------|--0--0--0----------------|--1---------------------|
-----3--0----0----0--0--|-----------3----0--0--3--|-----3--0----0-------0--|

  E  E  E  E  E  E  E  E     E  E  Q    Q    E  E     E  E  E  Q    E  E  E   
--------------------------|------------------------|-------------------------|
--------------------------|------------------------|-------------------------|
-----7--7--7--7--7--7--7--|------------------------|-------------------------|
--L--0--0--0--0--0--0--0--|--0--0--0----0----0--0--|--0--0--0--0----0--0--0--|

  E  E  Q    Q    E  E     E  E  E  Q    E  E  E     E  E  Q    Q    E  E   
------------------------|-------------------------|------------------------|
------------------------|-------------------------|------------------------|
------------------------|-------------------------|------------------------|
--0--0--0----0----0--0--|--0--0--0--0----0--0--0--|--0--0--0----0----0--0--|

  E  E  E  Q    E  E  E     E  E  Q    Q    E  E     E  E  E  E  E  E  E  E   
-------------------------|------------------------|--------------------------|
-------------------------|------------------------|--------------------------|
-------------------------|------------------------|-----------------0--3--0--|
--0--0--0--0----0--0--0--|--0--0--0----0----0--0--|--0--0--0--0--0-----------|

  E  E  E  E  E  E  Q       E  Q    E  E  E  E  E     E  E  E  E  E  E  Q     
-------------------------|-------------------------|-------------------------|
-------------------------|-------------------------|-------------------------|
--5--5--5--6--0--0--3----|--L--3----3--3--0--3--0--|--5--5--5--6--0--0--3----|
-------------------------|-------------------------|-------------------------|

  E  Q    E  E  E  E  E     E  E  E  E  E  E  Q       E  E  E  E  E  E  E  E   
-------------------------|-------------------------|--------------------------|
-------------------------|-------------------------|--------------------------|
--L--3----3--3--0--3--0--|--5--5--5--6--0--0--3----|--------------------------|
-------------------------|-------------------------|--0--3-----3-----3-----3--|

  E  E  E  E  E  E  Q       E  E  E  E  E  E  E  E     E  E  E  E  E  E  Q     
-------------------------|--------------------------|-------------------------|
-------------------------|--------------------------|-------------------------|
--0--0--0--1-------------|--------------------------|--0--0--0--1-------------|
--------------0--0--3----|--L--0--0--0--0--0--3--0--|--------------0--0--3----|

  E  E  E  E  E  E  E  E     E  E  E  E  E  E  Q       E  E  E  E  E  E  E  E   
--------------------------|-------------------------|--------------------------|
--------------------------|-------------------------|--------------------------|
--------------------------|--0--0--0--1-------------|--------------------------|
--L--0--0--0--0--0--3--0--|--------------0--0--3----|--L--0--0--0--0--0--3--0--|

  E  E  E  E  E  E  Q       E  E  E  E  E  E  E  E     W                 
-------------------------|--------------------------|-------------------|
-------------------------|--------------------------|-------------------|
--0--0--0--1-------------|-----------------------0--|--L----------------|
--------------0--0--3----|--0--3-----3-----3--------|-------------------|

  W                   H.           E  E     E  E  E  E  E  E  E  E   
-------------------|---------------------|--------------------------|
-------------------|---------------------|--------------------------|
--L----------------|--L---------------7--|--L--------------------7--|
-------------------|---------------0-----|-----0--0--0--0--0--0-----|

  E  E  E  E  E  E  E  E     E  E  E  E  E  E  E  E   
--------------------------|--------------------------|
--------------------------|--------------------------|
--L--------------------7--|--L-----------------------|
-----0--0--0--0--0--0-----|-----0--0--0--0--0--0--3--|

  E  E  E  E  E  E  E  E     E  E  E  E  E  E  E  E   
--------------------------|--------------------------|
--------------------------|--------------------------|
-----0--0--------5-----7--|--L--------------------7--|
--L--------0--5-----------|-----0--0--0--0--0--0-----|

  E  E  E  E  E  E  E  E     E  E  E  E  E  E  E  E   
--------------------------|--------------------------|
--------------------------|--------------------------|
--L--------------------7--|--L-----------------------|
-----0--0--0--0--0--0-----|-----0--0--0--0--0--0--3--|

  E  E  E  E  E  E  E  E     E  E  E  E  E  E  E  E   
--------------------------|--------------------------|
--------------------------|--------------------------|
-----0--0--------5-----7--|--L-----------------------|
--L--------0--5-----------|-----0--0--0--0--0--0--0--|

  E  E  E  E  E  E  E  E     E  E  Q    Q    E  E     E  E  E  Q    E  E  E   
--------------------------|------------------------|-------------------------|
--------------------------|------------------------|-------------------------|
--------------------------|--1---------------------|--0--0--0----------------|
--0--0--0--0--0--0--0--3--|-----3--0----0----0--0--|-----------3----0--0--3--|

  E  E  Q    Q    E  E     E  E  E  Q    E  E  E     E  E  Q    Q    E  E   
------------------------|-------------------------|------------------------|
------------------------|-------------------------|------------------------|
--1---------------------|-----------0-------------|--1---------------------|
-----3--0----0----0--0--|--3--3--3-------0--0--3--|-----3--0----0----0--0--|

  E  E  E  Q    E  E  E     E  E  Q    Q    E  E     E  E  E  E  E  E  E  E   
-------------------------|------------------------|--------------------------|
-------------------------|------------------------|--------------------------|
--0--0--0----------------|--1---------------------|-----7--7--7--7--7--7--7--|
-----------3----0--0--3--|-----3--0----0-------0--|--L--0--0--0--0--0--0--0--|

  E  E  Q    Q    E  E     E  E  E  Q    E  E  E     E  E  Q    Q    E  E   
------------------------|-------------------------|------------------------|
------------------------|-------------------------|------------------------|
------------------------|-------------------------|------------------------|
--0--0--0----0----0--0--|--0--0--0--0----0--0--0--|--0--0--0----0----0--0--|

  E  E  E  Q    E  E  E     E  E  Q    Q    E  E     E  E  E  Q    E  E  E   
-------------------------|------------------------|-------------------------|
-------------------------|------------------------|-------------------------|
-------------------------|------------------------|-------------------------|
--0--0--0--0----0--0--0--|--0--0--0----0----0--0--|--0--0--0--0----0--0--0--|

  E  E  Q    Q    E  E     E  E  E  E  E  E  E  E     E  E  E  E  E  E  Q     
------------------------|--------------------------|-------------------------|
------------------------|--------------------------|-------------------------|
------------------------|-----------------0--3--0--|--5--5--5--6--0--0--3----|
--0--0--0----0----0--0--|--0--0--0--0--0-----------|-------------------------|

  E  Q    E  E  E  E  E     E  E  E  E  E  E  Q       E  Q    E  E  E  E  E   
-------------------------|-------------------------|-------------------------|
-------------------------|-------------------------|-------------------------|
--L--3----3--3--0--3--0--|--5--5--5--6--0--0--3----|--L--3----3--3--0--3--0--|
-------------------------|-------------------------|-------------------------|

  E  E  E  E  E  E  Q       E  E  E  E  E  E  E  E     E  E  E  E  E  E  Q     
-------------------------|--------------------------|-------------------------|
-------------------------|--------------------------|-------------------------|
--5--5--5--6--0--0--3----|--------------------------|--0--0--0--1-------------|
-------------------------|--0--3-----3-----3-----3--|--------------0--0--3----|

  E  E  E  E  E  E  E  E     E  E  E  E  E  E  Q       E  E  E  E  E  E  E  E   
--------------------------|-------------------------|--------------------------|
--------------------------|-------------------------|--------------------------|
--------------------------|--0--0--0--1-------------|--------------------------|
--L--0--0--0--0--0--3--0--|--------------0--0--3----|--L--0--0--0--0--0--3--0--|

  E  E  E  E  E  E  Q       E  E  E  E  E  E  E  E     E  E  E  E  E  E  Q     
-------------------------|--------------------------|-------------------------|
-------------------------|--------------------------|-------------------------|
--0--0--0--1-------------|--------------------------|--0--0--0--1-------------|
--------------0--0--3----|--L--0--0--0--0--0--3--0--|--------------0--0--3----|

  E  E  E  E  E  E  E  E     E  E  E  E  E  E  Q       E  E  E  E  E  E  E  E   
--------------------------|-------------------------|--------------------------|
--------------------------|-------------------------|--------------------------|
--------------------------|--0--0--0--1-------------|--------------------------|
--0--3-----3-----3-----3--|--------------0--0--3----|--L--0--0--0--0--0--3--0--|

  E  E  E  E  E  E  Q       E  E  E  E  E  E  E  E     E  E  E  E  E  E  Q     
-------------------------|--------------------------|-------------------------|
-------------------------|--------------------------|-------------------------|
--0--0--0--1-------------|--------------------------|--0--0--0--1-------------|
--------------0--0--3----|--L--0--0--0--0--0--3--0--|--------------0--0--3----|

  E  E  E  E  E  E  E  E     E  E  E  E  E  E  Q       E  E  E  E  E  E  E  E   
--------------------------|-------------------------|--------------------------|
--------------------------|-------------------------|--------------------------|
--------------------------|--0--0--0--1-------------|-----------------------0--|
--L--0--0--0--0--0--3--0--|--------------0--0--3----|--0--3-----3-----3--------|

  W                   W                   H.           E  E   
-------------------|-------------------|---------------------|
-------------------|-------------------|---------------------|
--L----------------|--L----------------|--L---------------7--|
-------------------|-------------------|---------------0-----|

  E  E  E  E  E  E  E  E     E  E  E  E  E  E  E  E   
--------------------------|--------------------------|
--------------------------|--------------------------|
--L--------------------7--|--L--------------------7--|
-----0--0--0--0--0--0-----|-----0--0--0--0--0--0-----|

  E  E  E  E  E  E  E  E     E  E  E  E  E  E  E  E     E  E  E  E  Q.     E   
--------------------------|--------------------------|--------------9---------|
--------------------------|--------------------------|--------------9---------|
--L-----------------------|-----0--0--------5-----7--|--L---------------------|
-----0--0--0--0--0--0--3--|--L--------0--5-----------|--------0--0---------0--|

  Q    Q    Q.     E     Q    Q    Q.     E     Q    Q    Q.     E   
-------9----9---------|-------9----9---------|-------9----9---------|
-------9----9---------|-------9----9---------|-------9----9---------|
----------------------|----------------------|----------------------|
--0----------------0--|--L----------------0--|--0----------------0--|

  Q    Q    Q.     E     Q    Q    Q.     E     Q    Q    Q.     E   
-------9----9---------|-------9----9---------|-------9----9---------|
-------9----9---------|-------9----9---------|-------9----9---------|
----------------------|----------------------|----------------------|
--L----------------0--|--0----------------0--|--L----------------0--|

  Q    Q    Q    Q       W                   W                 
-------9----9---------|-------------------|-------------------|
-------9----9---------|-------------------|-------------------|
----------------------|-------------------|-------------------|
--L-------------------|--0----------------|--L----------------|

  W                   E  E  E  E  E  E  E  E     E  E  E  E  E  E  E  E   
-------------------|--------------------------|--------------------------|
-------------------|--------------------------|--------------------------|
-------------------|-----------------------0--|--L--0--0--0--0--0--0--0--|
--L----------------|--0--3-----3-----3--------|--------------------------|

  E  S S E  E  E  E  E  E     E  E  Q    Q    E  E     E  E  E  Q    E  E  E   
---------------------------|------------------------|-------------------------|
---------------------------|------------------------|-------------------------|
--0--0-0-0--0--0-----------|--1---------------------|-------------------------|
------------------0--3--0--|-----3--0----0----0--0--|--0--0--0--0----0--3--0--|

  E  E  E  E  Q    E  E     E  E  E  Q    E  E  E     E  E  E  E  Q    E  E   
-------------------------|-------------------------|-------------------------|
-------------------------|-------------------------|-------------------------|
--1----------------------|-------------------------|--1----------------------|
-----3--0--0--0----0--0--|--0--0--0--0----0--3--0--|-----3--0--0--0----0--0--|

  E  E  E  Q    E  E  E     E  E  E  E  Q    E  E     E  E  E  Q    E  E  E   
-------------------------|-------------------------|-------------------------|
-------------------------|-------------------------|-------------------------|
-------------------------|--1----------------------|--7--7--5--7----5-----0--|
--0--0--0--0----0--3--0--|-----3--0--0--0----0--0--|-------------------7-----|

  Q    E  E  E  E  E  E     Q    Q    E  E  E  E     Q    E  E  E  E  E  E   
-------------------------|------------------------|-------------------------|
-------------------------|------------------------|-------------------------|
-------------------------|---------------------0--|--2----2--2--2--2--2--2--|
--0----0--0--0--0--0--0--|--3----3----3--3--3-----|-------------------------|

  E  E  E  E  E  E  E  E     E  E  E  E  E  E  E  E   
--------------------------|--------------------------|
--------------------------|--2--2--2--2--2--2--2--4--|
--2--3--3--3--3--2--2--3--|--------------------------|
--------------------------|-------------------------|

  E  E  E  E  E  E  E  E     E  E  E  E  E  E  E  E     Q    H        E  E   
--0--0--0--0--0--0--0-----|--------------------------|----------------------|
-----------------------0--|--------------------------|--0----------------2--|
--------------------------|--2--2--2--2--2--2--2--2--|----------------------|
--------------------------|--------------------------|----------------0-----|

  E  E  E  E  E  E  E  E     E  E  E  E  E  E  E  E   
--------------------------|--------------------------|
--L-----------------------|--------------------------|
-----------------------7--|--L--------------------7--|
-----0--0--0--0--0--0-----|-----0--0--0--0--0--0-----|

  E  E  E  E  E  E  E  E     E  E  E  E  E  E  E  E   
--------------------------|--------------------------|
--------------------------|--------------------------|
--L-----------------------|-----0--0--------5-----7--|
-----0--0--0--0--0--0--3--|--L--------0--5-----------|

  E  E  E  E  E  E  E  E     E  E  E  E  E  E  E  E   
--------------------------|--------------------------|
--------------------------|--------------------------|
--L--------------------7--|--L--------------------7--|
-----0--0--0--0--0--0-----|-----0--0--0--0--0--0-----|

  E  E  E  E  E  E  E  E     E  E  E  E  E  E  E  E   
--------------------------|--------------------------|
--------------------------|--------------------------|
--L-----------------------|-----0--0--------5-----7--|
-----0--0--0--0--0--0--3--|--L--------0--5-----------|

  E  E  E  E  E  E  E  E     E  E  E  E  E  E  E  E     E  E  Q    Q    E  E   
--------------------------|--------------------------|------------------------|
--------------------------|--------------------------|------------------------|
--L-----------------------|--------------------------|--1---------------------|
-----0--0--0--0--0--0--0--|--0--0--0--0--0--0--0--3--|-----3--0----0----0--0--|

  E  E  E  Q    E  E  E     E  E  E  E  Q    E  E     E  E  E  Q    E  E  E   
-------------------------|-------------------------|-------------------------|
-------------------------|-------------------------|-------------------------|
-------------------------|--1----------------------|-------------------------|
--0--0--0--0----0--0--3--|-----3--0--0--0----0--0--|--0--0--0--0----0--0--3--|

  E  E  E  E  E  E  E  E     E  E  E  Q    E  E  E     E  E  E  E  Q    E  E   
--------------------------|-------------------------|-------------------------|
--------------------------|-------------------------|-------------------------|
--1-----------------------|-------------------------|--1----------------------|
-----3--0--0--0--0--0--0--|--0--0--0--0----0--0--3--|-----3--0--0--0----0--0--|

  E  E  E  E  E  E  E  E     E  E  E  E  Q    E  E     E  E  E  Q    E  E  E   
--------------------------|-------------------------|-------------------------|
--------------------------|-------------------------|-------------------------|
--7--7--7--7--7-----------|--1----------------------|-------------------------|
--0--0--0--0--0--0--0--3--|-----3--0--0--0----0--0--|--0--0--0--0----0--0--3--|

  E  E  E  E  Q    E  E     E  E  E  Q    E  E  E     E  E  E  E  Q    E  E   
-------------------------|-------------------------|-------------------------|
-------------------------|-------------------------|-------------------------|
--1----------------------|-------------------------|--1----------------------|
-----3--0--0--0----0--0--|--0--0--0--0----0--0--3--|-----3--0--0--0----0--0--|

  E  E  E  Q    E  E  E     E  E  E  E  Q    E  E     E  E  E  E  E  E  E  E   
-------------------------|-------------------------|--------------------------|
-------------------------|-------------------------|--------------------------|
-------------------------|--1----------------------|--------------0--0--3--0--|
--0--0--0--0----0--0--3--|-----3--0--0--0----0--0--|--0--0--0--3--------------|

  E  E  E  E  E  E  Q       E  Q    E  E  E  E  E     E  E  E  E  E  E  Q     
-------------------------|-------------------------|-------------------------|
-------------------------|-------------------------|-------------------------|
--5--5--5--6--0--0--3----|--L--3----3--3--0--3--0--|--5--5--5--6--0--0--3----|
-------------------------|-------------------------|-------------------------|

  E  Q    E  E  E  E  E     E  E  E  E  E  E  Q       E  E  E  E  E  E  E  E   
-------------------------|-------------------------|--------------------------|
-------------------------|-------------------------|--------------------------|
--L--3----3--3--0--3--0--|--5--5--5--6--0--0--3----|--------------------------|
-------------------------|-------------------------|--0--3-----3-----3-----3--|

  E  E  E  E  E  E  Q       E  E  E  E  E  E  E  E     E  E  E  E  E  E  Q     
-------------------------|--------------------------|-------------------------|
-------------------------|--------------------------|-------------------------|
--0--0--0--1-------------|--------------------------|--0--0--0--1-------------|
--------------0--0--3----|--L--0--0--0--0--0--3--0--|--------------0--0--3----|

  E  E  E  E  E  E  E  E     E  E  E  E  E  E  Q       E  E  E  E  E  E  E  E   
--------------------------|-------------------------|--------------------------|
--------------------------|-------------------------|--------------------------|
--------------------------|--0--0--0--1-------------|--------------------------|
--L--0--0--0--0--0--3--0--|--------------0--0--3----|--L--0--0--0--0--0--3--0--|

  E  E  E  E  E  E  Q       E  E  E  E  E  E  E  E     E  E  E  E  E  E  Q     
-------------------------|--------------------------|-------------------------|
-------------------------|--------------------------|-------------------------|
--0--0--0--1-------------|--------------------------|--0--0--0--1-------------|
--------------0--0--3----|--0--3-----3-----3-----3--|--------------0--0--3----|

  E  E  E  E  E  E  E  E     E  E  E  E  E  E  Q       E  E  E  E  E  E  E  E   
--------------------------|-------------------------|--------------------------|
--------------------------|-------------------------|--------------------------|
--------------------------|--0--0--0--1-------------|--------------------------|
--L--0--0--0--0--0--3--0--|--------------0--0--3----|--L--0--0--0--0--0--3--0--|

  E  E  E  E  E  E  Q       E  E  E  E  E  E  E  E     E  E  E  E  E  E  Q     
-------------------------|--------------------------|-------------------------|
-------------------------|--------------------------|-------------------------|
--0--0--0--1-------------|--------------------------|--0--0--0--1-------------|
--------------0--0--3----|--L--0--0--0--0--0--3--0--|--------------0--0--3----|

  E  E  E  E  E  E  E  E     W                   W                 
--------------------------|-------------------|-------------------|
--------------------------|-------------------|-------------------|
-----------------------0--|--L----------------|--L----------------|
--0--3-----3-----3--------|-------------------|-------------------|

  H.           Q        E  E  E  E  E  E  E  E     E  E  E  E  E  E  E  E   
---------------------|--------------------------|--------------------------|
---------------------|--------------------------|--------------------------|
--L------------7S----|--------------------------|--------------------------|
---------------------|--0--0--0--0--0--0--0--0--|--0--0--0--0--0--0--0--0--|

  E  E  E  E  E  Q.        W                   H        Q    Q      
------------------------|-------------------|---------------------||
------------------------|-------------------|-----------0---------||
------------------------|--7----------------|--L------------------||
--0--3-----3-----3------|--0----------------|--L------------------||
Composição: James Hetfield / Lars UlrichColaboração e revisão:
  • Bruno

0 comentários

    mostrar mais comentários

    Conseguiu tocar?

    0tocaram0ainda não

    Grave um vídeo tocando Attitude e mande pra gente!

    00:00 / 00:00
    outros vídeos desta música
    repetirqualidadeautomática
    Outro vídeos desta música
      00:00 / 00:00
      automática
      OK