Cifra Club

Battery

Metallica

Tab de bateria: Principal
exibições 38.924
Note: t1= small tom t2= second smallest tom, ect.  C=choke. 

Intro 

   | repeat 16x     |  repeat 8x     | 
C  |----------------|X-----X---------|X---X---X---X---| 
T3 |----------------|----oo----------|----------------| 
T4 |----------------|----oo----------|----------------| 
B  |----------------|0-----0---------|0---0---0---0---| 

Tempo speeds up 
                    |  repeat 3x     | 
C  |c---------------|----------------|C---------C-C-C-|C---------------| 
B  |0---------------|----------------|0---------0-0-0-|0---------------| 

C  |----------------|--X---X---X-----|X---------------|----------------| 
H  |----------------|----------------|--x-x-x-x-x-x-x-|x-x-x-x-x-x-x-x-| 
S  |----------------|o-------------o-|--o---o---o---o-|--o---o---o---o-| 
B  |----------------|--0---0---0-----|0---00--0----0--|0---00--0----0--| 

C  |----------X-----|--X-------------|-------X---X-----|----------------| 
H  |x-x-x-x-x---x-x-|x---x-x-x-x-x-x-|x------------x-x-|x-x-x-x-x-x-x-x-| 
S  |--o---o---o---o-|--o---o---------|-------o---o---o-|--o---o---o---o-| 
t1 |----------------|----------o---o-|o-ttto-----------|----------------| 
B  |0---00--0----0--|0---00--0---00--|0----00--0----0--|0---00--0----0--| 

C  |--X-------------|----------------|X----------------|-----------------| 
H  |x---x-x-x-x-x-x-|--x---x---x-----|----x-x-x-x--x-x-|x-x-x-x-x-x--x-x-| 
S  |--o---o---o---o-|o-------------o-|----o--------o---|----o--------o---| 
B  |0---00--0---00--|--0---0---0-----|0---------ttt----|0---------ttt----| 

C  |------------X---| 
H  |x-x-x-x---------| 
S  |----o-----------| 
t3 |--------o-o-----| 
t4 |--------o-o-----| 
B  |0-----------0---| 

Verse 1 

C  |X---------------|----------------|----------------|--X---X---------| 
H  |--x-x-x-x-x-x-x-|x-x-x-x-x-x-x-x-|x-x-x-x-x-x-x-x-|x---x---x-x-x-x-| 
S  |--o---o---o---o-|--o---o---o---o-|--o---o---o---o-|--o---o---------| 
t1 |----------------|----------------|----------------|----------o---o-| 
B  |0---00--0----0--|0---00--0----0--|0---00--0---0---|0---00--0---0---| 

C  |--X-------------|----------------|----------------|----------------| 
H  |x---x-x-x-x-x-x-|x-x-x-x-x-x-x-x-|x-x-x-x-x-x-x-x-|x-x-x-x-x-x-x-x-| 
S  |--o---o---o---o-|--o---o---o---o-|--o---o---o---o-|----------o---o-| 
t1 |----------------|----------------|----------------|--o---o---------| 
B  |0---00--0----0--|0---00--0----0--|0---00--0---00--|0---00--0----0--| 

   |  repeat 2x      | 
C  |X----------------| 
H  |----x-x-x-x--x-x-| 
S  |----o--------o---| 
B  |0---------ttt----| 

C  |X-----------X---|X---------------|----------X---X-| 
H  |----x-x---------|--x-x-x-x-x-x-x-|x-x-x-x-x---x---| 
S  |----o-----------|--o---o---o---o-|--o---o---o---o-| 
t3 |--------o-o-----|----------------|----------------| 
t4 |--------o-o-----|----------------|----------------| 
B  |0-----------0---|0---00--0---00--|0---00--0---00--| 

                                     | repeat 2x 
C  |----------------|----------X---X-|X----------------| 
H  |x-x-x-x-x-x-x-x-|x-x-x-x-x---x---|----x-x-x-x--x-x-| 
S  |--o-------------|----------o---o-|----o--------o---| 
t1 |------o---o---o-|--o---o---------|-----------------| 
B  |0---00--0---00--|0---00--0---00--|0---------ttt----| 

C  |------------X---|X---------------|--X-------------|X-------X-------| 
H  |----------------|--x-x-x-x-x-x-x-|x---x-x-x-x-x-x-|----------------| 
S  |o-ooo-o---------|--o---o---o---o-|--o-----------o-|----------------| 
T2 |----------------|----------------|----------------|----oooo--------| 
T3 |--------o-o-----|----------------|----------------|------------oooo| 
T4 |--------o-o-----|----------------|----------------|----------------| 
B  |------------0---|0---00--0---00--|0---00--0---00--|0-------0-------| 

C  |X-------X---X---|X---------------|----------X---X-| 
H  |----------------|--x-x-x-x-x-x-x-|x-x-x-x-x---x---| 
S  |----oooo--------|--o---o---o---o-|--o-------o---o-| 
B  |0-------0---0---|0---00--0----0--|0---00--0---00--| 

5/4 C  |----------------X-X-| 
    H  |x-x-x-x-x-x-x-x-----| 
    S  |--------------o-o-o-| 
    B  |0---00--0---0-------| 

C  |----------------|----------X---X-|----------------|X---X---C-------| 
H  |x-x-x-x-x-x-x-x-|x-x-x-x-x---x---|x-x-x-x-x-x-x-x-|----------------| 
S  |--o---o---o---o-|--o---o---o---o-|--o---o-------o-|----------------| 
B  |0---00--0----0--|0---00--0---00--|0---00--0---00--|0---0---0-------| 
  

   | repeat 2x       | 
C  |X----------------|------------X---| 
H  |----x-x-x-x--x-x-|----------------| 
S  |----o--------o---|ooooo-o---------| 
t1 |-----------------|--------o-o-----| 
B  |0---------ttt----|------------0---| 

Verse 2 

C  |X---------------|----------------|--X-------------|--X-------------| 
H  |--x-x-x-x-x-x-x-|x-x-x-x-x-x-x-x-|x---x-x-x-x-x-x-|x---x-x-x-x-x-x-| 
S  |--o---o---o---o-|--o---o---o---o-|--o---o---o---o-|--o---o---------| 
t1 |----------------|----------------|----------------|----------o---o-| 
B  |0---00--0----0--|0---00--0----0--|0---00--0---00--|0---00--0---00--| 

C  |--X-------------|----------X---X-|----------------|--------------X-| 
H  |x---x-x-x-x-x-x-|x-x-x-x-x---x---|x-x-x-x-x-x-x-x-|x-x-x-x-x-x-x---| 
S  |--o---o---o---o-|--o---o---o---o-|--o---o---o-----|--------------o-| 
t1 |----------------|----------------|--------------o-|--o---o---o-----| 
B  |0---00--0----0--|0---00--0----0--|0---00--0---00--|0---00--0----0--| 
  
  
  

C  |X----------------|X----------------| 
H  |--x-x-x-x-x--x-x-|--x-x-x-x-x--x-x-| 
S  |----o--------o---|----o--------o---| 
B  |0---------ttt----|0---------ttt----| 

C  |X-----------X---|X---------------|--X-------X-----|----------------| 
H  |----x-x---------|--x-x-x-x-x-x-x-|x---x-x-x---x-x-|x-x-x-x-x-x-x-x-| 
S  |----o-----------|--o---o---o---o-|--o---o---o---o-|----------------| 
t1 |----------------|----------------|----------------|--o---o---o---o-| 
t4 |--------o-o-----|----------------|----------------|----------------| 
Ft |--------o-o-----|----------------|----------------|----------------| 
B  |0-----------0---|0---00--0----0--|0---00--0---00--|0---00--0---00--| 

                    |  repeat 2x      | 
C  |--X---X---------|X----------------|------------X---|X---------------| 
H  |x---x---x-x-x-x-|----x-x-x-x--x-x-|----------------|--x-x-x-x-x-x-x-| 
S  |--o---o---o---o-|----o--------o---|o-ooo-o---------|--o---o---o---o-| 
t4 |----------------|-----------------|--------o-o-----|----------------| 
Ft |----------------|-----------------|--------o-o-----|----------------| 
B  |0---00--0---00--|0---------ttt----|------------0---|0---00--0---00--| 

C  |----------------|X-------X-------|X-------X---X---|X---------------| 
H  |x-x-x-x-x-x-x-x-|----------------|----------------|--x-x-x-x-x-x-x-| 
S  |--o---o---o---o-|----------------|----oooo--------|--o---o---o---o-| 
t2 |----------------|----oooo--------|----------------|----------------| 
t3 |----------------|------------oooo|----------------|----------------| 
B  |0---00--0---00--|0-------0-------|0-------0---0---|0---00--0----0--| 

C  |----------------|    |----------------X-X-|    |----------------| 
H  |x-x-x-x-x-x-x-x-| 5/4|x-x-x-x-x-x-x-x-----| 4/4|x-x-x-x-x-x-x-x-| 
S  |--o---o---o---o-|    |--o---o---o---o-o-o-|    |--o---o---o---o-| 
B  |0---00--0----0--|    |0---00--0---0-------|    |0---00--0---00--| 

C  |--X---X---------|--X-------------|X---X---C-------| not |X---------------| 
H  |x---x---x-x-x-x-|x---x-x-x-x-x-x-|----------------| in  |----------------| 
S  |--o---o---------|--o---o---o---o-|----------------| time|----------------| 
t1 |----------o---o-|----------------|----------------|     |----------------| 
B  |0---00--0---00--|0---00--0---00--|0---0---0-------|     |0---------------| 

Interlude 
C  |X---------------|----------------|----------------|----------------| 
H  |----x-x-x-x-x-x-|x-x-x-x-x-x-x-x-|x-x-x-x-x-x-x-x-|x-x-x-x-x-x-x-x-| 
S  |--------o-------|--------o---o---|--------o-------|o-------o-------| 
B  |0-----0---0---0-|0---0-0---0---0-|0---0-0---------|--0---0---0---0-| 

C  |--------X---X---|------------X---|X---------------|--------X-X-----| 
H  |x-x-x-x---------|x-x-x-x-x-x-----|----x-x-x-x-x-x-|x-x-x-x---------| 
S  |--------o---o---|--------0---0---|--------o-------|--------o-o-----| 
B  |0---0-0---------|0-----0---------|0-----0-------0-|0-----d-o-o-----| 

C  |X---------------|----------------|--------X-------|------------X---| 
H  |--x-x-x-x-x-x-x-|x-x-x-x-x-x-x-x-|x-x-x-x---x-x-x-|x-x-x-x-x-x-----| 
S  |--------o-------|--------o---o---|--------o-------|o-o---o-o---o---| 
B  |0-----0---0---0-|0---0-0---0---0-|0---0-0-------0-|----o-----------| 

C  |X---------------|------------X---|X---------------|X---------------| 
H  |--x-x-x-x-x-x-x-|x-x-x-x-x-x-----|--x-x-x-x-x-x-x-|----------------| 
S  |--------o-------|--------o---o---|--------o-------|o-ooo-o---------| 
t4 |----------------|----------------|----------------|--------o-o-o-o-| 
B  |0-----0---0---0-|0-----d---------|0-----0-------0-|----------------| 
  
  

C  |X---------------|------------X---|X---------------|----------------| 
H  |----x-x-x-x-x-x-|x-x-x-x-x-x-----|----x-x-x-x-x-x-|x-x-x-x-x-------| 
S  |--------o-------|--------o---o---|--------o-------|----------ooo-o-| 
B  |0-----0---0---0-|0-----d---------|0-----0---0---0-|0-----0---------| 
  
  
  

                                                      | t=16th notetriplet 
| 
C  |--------X-------|X-----X-----X---|X---------------|--------------------| 
H  |x-x-x-x---------|----------------|----------------|--------------------| 
S  |--------o-------|----------------|----------------|F-tt----F-tt----F---| 
T4 |------------o-o-|----------------|----------------|--------------------| 
Ft |------------o-o-|----------------|----------------|--------------------| 
B  |0-----0---------|0-----0-----0---|0---------------|----tttt----tttt----| 
                     1e&a2e&a3e&a4e&a 

C  |--X---X---X-----|X---------------|----------------|----------------| 
H  |----------------|--x-x-x-x-x-x-x-|x-x-x-x-x-x-x-x-|x-x-x-x-x-x-x-x-| 
S  |o-------------o-|--o---o---o---o-|--o---o---o---o-|--o---o---o---o-| 
B  |--0---0---0-----|0---00--0---00--|0---00--0---00--|0---00--0----0--| 

C  |----------------|--X-------------|----------------|--X-------------| 
H  |x-x-x-x-x-x-x-x-|x---x-x-x-x-x-x-|x-x-x-x-x-x-x-x-|x---x-x-x-x-x-x-| 
S  |--o---o---o---o-|--o---o---o---o-|--o---o---o---o-|--o---o---o---o-| 
B  |0---00--0---00--|0---00--0---00--|0---00--0---00--|0---00--0---00--| 

H  |--x---x---x-----|x-x-x-x-x-x-x-x-|x-x-x-x-x-x-x-x-|x-x-x-x-x-x-x-x-| 
S  |o------------f--|--o---o---o---o-|--o---o---o---o-|--o---o---o---o-| 
B  |--0---0---0-----|0---00--0---00--|0---0---0---00--|0---00--0---00--| 





Contribuição: André (qlixo666@hotmail.com)

0 comentários

    mostrar mais comentários

    Conseguiu tocar?

    0tocaram0ainda não

    Grave um vídeo tocando Battery e mande pra gente!

    00:00 / 00:00
    outros vídeos desta música
    repetirqualidadeautomática
    Outro vídeos desta música
      00:00 / 00:00
      automática
      OK