Notificações Amigos pendentes

      Metallica

      Blitzkrieg

      349 exibições
      192 bpm             2/4 4/4         2/4     4/4 fig.1
      ---|--------|---|---|---|---|---|---|--------||-------------------|
      ---|-----R--|-R-|-R-|-R-|-R-|-R-|-R-|-R------||-o-----------------|
      -5-|-5h7----|---|---|---|---|---|---|---/19-||-o-5h7-----7---5h7-|
      ---|--------|---|---|---|---|---|---|--------||-------0-0---0-----|
       q   e e h.   w   w   h   w   w   w   q  q        e e e e e e e e
      
                                     |1,2,3.    |4.
                                     2/4 end fig.1  2/4
      |-----------------|------------|---------||---------|
      |-----5-----------|------------|-------o-||---------|
      |---------5h7-----|-2-3/-----0-|-----5-o-||---------|
      |-0-0---0-----0-0-|------0-0---|-0-0-----||-0-0-12-|
        e e e e e e e e   q q  e e q   e e q      e e q
      
      4/4                  |1,2,3.              |4.
      ||-------------------|-------------------||-----------------||
      ||-o-----------------|-----------------o-||-----------------||
      ||-o-----------------|-----------------o-||-------------3p2-||
      ||---0-0-2-0-0-3-0-0-|-2-0-0-3-0-0-2h3---||-2-0-0-3-0-0-----||
           e e e e e e e e   e e e e e e e e      e e e e e e e e
      
      Verse 1
         fig.2
      ||-------------------|-----------------|-----------------|
      ||-o-----------------|-----------------|-----------------|
      ||-o-----------------|-----------------|-----------------|
      ||---0-0-2-0-0-3-0-0-|-2-0-0-3-0-0-2h3-|-0-0-2-0-0-3-0-0-|
           e e e e e e e e   e e e e e e e e   e e e e e e e e
      
                              Pre-chorus
            end fig.2  2 times  fig.3
      |-------------------|||---------------|---------------|-------------|
      |-----------------o-|||-o-----R-------|---------------|-----R-------|
      |-------------3p2-o-|||-o-0-0---3-2-3-|-(3)-3-3-2-3-2-|-0-0---3-2-3-|
      |-2-0-0-3-0-0-------|||---------------|---------------|-------------|
        e e e e e e e e         q q e e e e   (q) e e e e q   q q e e e e
      
                            Chorus
             end fig.3  2 times                                     2/4
      |-----------------||                                          |---------||
      |---------------o-||  play fig.1  3 times, fig.1 first 3 bars |---------||
      |-(3)-3-3-2-3-5-o-||                                          |---------||
      |-----------------||                                          |-0-0-12-||
        (q) e e e e q                                                 e e q
      
      Verse 2 : play fig.2  2 times
      Pre-chorus 2 : play fig.3  2 times
      Chorus 2 : play fig.1  2 times
      
      Guitar solo
      |-----------------|-----|-----|-----------------|-----------------|-----|
      |-----------------|  %  |  %  |-----------------|-----------------|  %  |
      |-----------------|-----|-----|-----------------|-----------------|-----|
      |-2-2-2-2-2-2-2-2-|-----|-----|-2-2-2-2-2-2-0-0-|-2-2-2-2-2-2-2-2-|-----|
        e e e e e e e e               e e e e e e e e   e e e e e e e e
      
      |-----|-----------------|-----------------|-----------------|
      |  %  |-----------------|-----------------|-----------------|
      |-----|-----------------|-----------------|-----------------|
      |-----|-2-2-2-2-2-2-5-5-|-4-4-4-4-4-4-4-4-|-4-4-4-4-4-4-2-2-|
              e e e e e e e e   e e e e e e e e   e e e e e e e e
      
      |-----------------|-----------------|-----------------|-----|-----|
      |-----------------|-----------------|-----------------|  %  |  %  |
      |-----------------|-----------------|-----------------|-----|-----|
      |-4-4-4-4-4-4-4-4-|-4-4-4-2-2-2-2-2-|-4-4-4-4-4-4-4-4-|-----|-----|
        e e e e e e e e   e e e e e e e e   e e e e e e e e
      
      |-----------------|-----------------|-----|-----|-----|-----|-----|-----|
      |-----------------|-----------------|  %  |  %  |  %  |  %  |  %  |  %  |
      |-----------------|-----------------|-----|-----|-----|-----|-----|-----|
      |-4-4-4-4-4-4-5-5-|-6-6-6-6-6-6-6-6-|-----|-----|-----|-----|-----|-----|
        e e e e e e e e   e e e e e e e e
      
                       half time 96 bpm
      |---------------||--------|--------|-----------------|---------|
      |---------------||--------|--------|-----------------|---------|
      |---------------||------3-|-3--5-7-|---7-7-7-5-5-----|-3--3-5--|
      |-6-6-6-6-6-6-6-||-0------|--------|-0-----------7-5-|---------|
        e e e e e e q    h... s   h. e e   q q s s s s e e   h. s e.
      
      |------------------------|-------------|----------------|
      |------------------------|-------------|----------------|
      |-7----7-7-7-5-5---------|-3---3-3-3-5-|-7----7-7---7-7-|
      |----0-----------7-7-5-5-|-------------|-0--0-----7-----|
        e. s q s s s s s s s s   h+s e e s e   q  q s e s e e
           ^ ^
          let ring
                                  Tempo I
      |--------------------------||-----------------|-------------------|
      |--------------------------||-----------------|-------------------|
      |-3-3-0-3--0-3-3-3-3-3-5-5-||-7-7-7-7-7-7-7-7-|-7-7-9-9-10-10-9-7-|
      |--------------------------||-----------------|-------------------|
        e s s e. s e s s s s s s    e e e e e e e e   e e e e e  e  e e
      
      |---------------------|---------------------|-----------------|
      |---------10-10-10-10-|-10-10-9-9-7-7-------|-----------------|
      |---------------------|---------------10-10-|-7-7-7-7-7-7-7-9-|
      |-8-8-8-8-------------|---------------------|-----------------|
        e e e e e  e  e  e    e  e  e e e e e  e    e e e e e e e e
      
      |---------------------|-------------------------|---------------------|
      |-------7-7-9-9-------|-10-10-10-10-10-10-10-10-|-10-10-9-9-7-7-------|
      |-10-10---------10-10-|-------------------------|---------------10-10-|
      |---------------------|-------------------------|---------------------|
        e  e  e e e e e  e    e  e  e  e  e  e  e  e    e  e  e e e e e  e
      
      |-------------------|------------------|-------------------------|
      |-------------------|------------------|-10-10-10-10-10-10-10-10-|
      |-7-7-7-9-10-10-7-7-|-7-10-7-7-7-7-7-7-|-------------------------|
      |-------------------|------------------|-------------------------|
        e e e e e  e  e e   e e  e e e e e e   e  e  e  e  e  e  e  e
      
      |---------------------|-------7h9-------|------------------|
      |-10-10-9-9-7-7-------|-----------------|------------------|
      |---------------10-10-|-7-7-7-----7-7-7-|-7-7-7-7-7-7-10-7-|
      |---------------------|-----------------|------------------|
        e  e  e e e e e  e    e e e e e e e e   e e e e e e e  e
      
      |-------------------------|-------------------||-----------------|
      |-10-10-10-10-10-10-10-10-|-10-10-9-9-7-7-----||-o---------------|
      |-------------------------|---------------10/-||-o---7---7-7---7-|
      |-------------------------|-------------------||---0---0-----0---|
        e  e  e  e  e  e  e  e    e  e  e e e e q        q e e e e e e
      
                                                         2 times
      |-----------------|-------------|---------------------||
      |-----------------|-------------|---------------R---o-||
      |-(7)---7-----7-3-|-3-3-3-3-3-3-|-(3)-3-3-3---3---3-o-||
      |-----0---0-7-----|-------------|-----------3---------||
        (e) e e e e q e   q e e e q e   (e) e e e e e e e
      
      |---------------|-----------------|---------|-------------------||
      |---7-----------|-----------------|---------|-------------------||
      |-0---0-0-0-0-0-|-(0)-0-0-0-0-0-0-|---------|-----------2-3-----||
      |---------------|-----------------|-3--2--3-|-(3)-0-2-3-----3-2-||
        q e e e e e e   (e) e e e e e q   q. q. q   (e) e e e e e e e
      
                                                                          2 times
      ||--------------------|-----------------|---------|---------------------||
      ||-o------------------|-----------------|---------|-------------------o-||
      ||-o------------------|-----------------|---------|-----------3-2-----o-||
      ||----0-0-2-0-0-3-0-0-|-2-0-0-3-0-0-2-3-|-3--2--3-|-(3)-0-2-3-----3-2---||
            e e e e e e e e   e e e e e e e e   q. q. q   (e) e e e e e e e
      
      Free time
      |-----------------------||
      |----2///X--------R-----||
      |----2///Xp0------------||
      |-0---------------------||
        Composição: Jim SirottoColaboração e revisão:
        • Luan CG

        Comentários 0

        140 .
        140 cancelar

        conseguiu tocar?

        covers

        Grave um vídeo tocando Blitzkrieg e mande pra gente!

        Ex.: http://www.youtube.com/watch?v=0IvSvIwGdwk
        ver covers de outras músicas »
        0:00 / 0:00

        Capítulos

          1 versão de violão dificuldade exibições contribuição e correção
          1 versão de guitarra dificuldade exibições contribuição e correção
          1 versão de cavaco dificuldade exibições contribuição e correção
          1 versão de teclado dificuldade exibições contribuição e correção
          1 versão de baixo exibições contribuição e correção
          1 versão de bateria exibições contribuição e correção
          2 versões de Guitar Proformatodownloadscontribuição
          play/pausefechar subir/descer velocidade
          6ª corda E5ª corda A4ª corda D3ª corda G2ª corda B1ª corda E
            acordes
            publicidade
            fechar
            ok