Cifra Club

Blues Jam

Metallica

Tab de baixo: Principal
exibições 2.136
During the solos section after Dazed and Confused

Bass:
1)
G---------------------
D---------------------  4 times
A--//-----------------
E--//5-5-10-10-8-8-5-5


2)
G-------------------
D-------------------
A--5-5-10-10-8-8-5-5  2 times; then riff 1
E-------------------


3)
G---------------------------------
D--------9-7------------7-5-------
A--7-7-7-----9-7--5-5-5-----7-5---
E---------------------------------


4)
G------------------------5
D--------------------5-7--
A----------5-5-6-6-7------
E--5-5-8-8----------------
Colaboração e revisão:
  • Hellektra

0 comentários

    mostrar mais comentários

    Conseguiu tocar?

    0tocaram0ainda não

    Grave um vídeo tocando Blues Jam e mande pra gente!

    00:00 / 00:00
    outros vídeos desta música
    repetirqualidadeautomática
    Outro vídeos desta música
      00:00 / 00:00
      automática
      OK