Charlie Brown Theme

Metallica

tom: B
e--------------------------------------------------------
B------2--2---------------2-2--------2--2----------------
G--2-4------4-2--4-2--2-4--------2-4------4-2--4-2--2-4-4
D--------------------------------------------------------
A--------------------------------------------------------
E--------------------------------------------------------
(play twice)

full
^ ^ ^ ^ ^ ^
e------------------------
B---------------7---7---7
G--2-2-2-4-4--9---9---9--
D--2-2-2-4-4-------------
A--0-0-0-2-2-------------
E------------------------
play 3 times

A.H.
e---
B--7
(at the end of the version I have Kirk hits the F# and does a
dive on the trem)
Página 1 / 1

Letras e título
Acordes e artista

resetar configurações
OK