Cifra Club

Cors Light Beer Song

Metallica

Tab de baixo: Principal
exibições 2.343
From: P*


"Cor's Light Beer Song"
	This ssong is from "Live Shit: Binge and Purge" and Jason plays it while
Jamez has a cold one.

Tabbed by Christopher Preston (PRIMUS8@*)

|---------------|---------------|
|-----------2---|---------------|
|-------2-4---4-|-------2-4-2-4-|
|-X-2-4---------|-X-2-4---------|


|-------------------------------------------|
|---------------6---6---6---6---6---6---6--6|
|-4-----------------------------------------|
|---1-1-2-2-3-4---4---4---4---4---4---4---4-|


|------------------------------|
|---4---4---4---4---4---4---4--|
|------------------------------|
|-2---2---2---2---2---2---2----|


0 comentários

    mostrar mais comentários

    Conseguiu tocar?

    0tocaram0ainda não

    Grave um vídeo tocando Cors Light Beer Song e mande pra gente!

    00:00 / 00:00
    outros vídeos desta música
    repetirqualidadeautomática
    Outro vídeos desta música
      00:00 / 00:00
      automática
      OK