Cifra Club

Creeping Death

Metallica

Cifra: Principal
exibições 104.100
Tom: E
[Intro]

E|--------------------------------|
B|--------------------------------|
G|--------------------------------|
D|------------9---------------9-7-|
A|------------7---------------7-5-|
E|-0-0-0-0-0-------0-0-0-0-0------| (2x)

E|---------------------------------|
B|---------------------------------|
G|---------------------------------|
D|------------9---------------9--7-|
A|------------10--------------10-9-|
E|-0-0-0-0-0-------0-0-0-0-0-------| (2x)

( A5  G5  F#5  E5 )

Riff Principal parte A:
E|-------------------------------------|
B|-------------------------------------|
G|-------------------------------------|
D|-----2-----2---2-----2---------------|
A|-----2-----2---2-----2---2-3-2h3p2p0-|
E|-0-0---0-0---0---0-0---0-------------|

Riff Principal parte B:
E|-----------------------------------|
B|-----------------------------------|
G|-----------------------------------|
D|-----------------------------------|
A|-2-2--5--2-2--5--2--2--------------|
E|-0-0--3--0-0--3--0--0-2-2-2-2-2-2--|

Riff Principal parte C:
E|-------------------------------------|----|
B|-------------------------------------|----|
G|-------------------------------------|----|
D|-----2-----2---2-----2---------------|----|
A|-----2-----2---2-----2---2-3-2h3p2p0-|-2--|
E|-0-0---0-0---0---0-0---0-------------|-0--|

( B5  C#5  F#5 )

Riff Principal parte A:
E|-------------------------------------|
B|-------------------------------------|
G|-------------------------------------|
D|-----2-----2---2-----2---------------|
A|-----2-----2---2-----2---2-3-2h3p2p0-|
E|-0-0---0-0---0---0-0---0-------------|

Riff Principal parte B:
E|-----------------------------------|
B|-----------------------------------|
G|-----------------------------------|
D|-----------------------------------|
A|-2-2--5--2-2--5--2--2--------------|
E|-0-0--3--0-0--3--0--0-2-2-2-2-2-2--|

[Refrão] E5  C5  D5  F5  E5

E|----------------------------------------------|
B|----------------------------------------------|
G|----------------------------------------------|
D|------------5-7---10--9-----------5-7---10-12-|
A|-2----------3-5---8---7-----------3-5---8--10-|
E|-0----0-0-0-----------------0-0-0-------------|

[Solo]

E|----------12----------------14-------------------------------|
B|-12-13-15----15-13-14-15-17----17-15-15-17-19-17-19-20-19-20-|
G|-------------------------------------------------------------|
D|-------------------------------------------------------------|
A|-------------------------------------------------------------|
E|-------------------------------------------------------------|

E|----19-20-22-22b24-22b24-22b24-22b24r22b24--|
B|-22-----------------------------------------|
G|--------------------------------------------|
D|--------------------------------------------|
A|--------------------------------------------|
E|--------------------------------------------|

E|-19-22-20-19-17-21-19-17-15-19-17-15-14-17-15-14-12-15-14-12-|
B|-------------------------------------------------------------|
G|-------------------------------------------------------------|
D|-------------------------------------------------------------|
A|-------------------------------------------------------------|
E|-------------------------------------------------------------|

E|------------------------------------------------------------|
B|-15--12h15p12----------14b15r14-----------14b15-14----------|
G|--------------14-12-14-14b15r14-12----12--14b15-14-12----12-|
D|-----------------------------------14-----------------14----|
A|------------------------------------------------------------|
E|------------------------------------------------------------|

E|--------------------------------------------------------------------|
B|----------12h15p12h15p12-------12h15p12h15p12-------12h15p12h15p12--|
G|-14-14b16----------------14b16----------------14b16-----------------|
D|--------------------------------------------------------------------|
A|--------------------------------------------------------------------|
E|--------------------------------------------------------------------|

E|---------12-15p12----12----------------------14-17p15p14---|
B|--15b17-----------15----15-12-15p12----12------------------|
G|------------------------------------14----14---------------|
D|-----------------------------------------------------------|
A|-----------------------------------------------------------|
E|-----------------------------------------------------------|

E|-15p14----14------------------------------------------------------17-20/22|
B|-------17----17p15-17p15p14-15p14-12-14p12---------------------18---------|
G|-------------------------------------------14-12----12-14/19--------------|
D|-------------------------------------------------14-----------------------|
A|--------------------------------------------------------------------------|
E|--------------------------------------------------------------------------|

E|-------12-17p12----|-12h15p12--------------------|
B|----13----------13-|----------15-12----12-15p12--|
G|-14----------------|----------------14-----------|
D|-------------------|-----------------------------|
A|-------------------|-----------------------------|
E|-------------------|-----------------------------|
                (4x)
E|----------------------------------|
B|-------------15----15-------------|
G|-14-12----12-14b16-14b16r14b16~~--|
D|-------14-------------------------|
A|----------------------------------|
E|----------------------------------|

E|-------------------------------------------------------|
B|-------------------------------------------------------|
G|-------------------------------------------------------|
D|-2-3-2-3-2-3-2-3-2-4-3-4-3-4-3-5-4-5-4-5-4-5-4-6-5-6-5-|
A|-------------------------------------------------------|
E|-------------------------------------------------------|

E|-----------------------------------------------------------|
B|-----------------------------------------------------------|
G|-----------------------------------------------------------|
D|-7-6-7-6-8-7-8-7-9-8-9-8-10-9-10-9-11-10-11-10-12-11-12-11-|
A|-----------------------------------------------------------|
E|-----------------------------------------------------------|

E|-------------------------------------|
B|-------------------------------------|
G|-------------------------------------|
D|-13-12-13-12-14-13-14-13-15-14-15-14-|
A|-------------------------------------|
E|-------------------------------------|

E|-------------------------------------14-17p14--------------------|
B|-------------------14-17p14----14-17----------17-14----14-17p14--|
G|-14-16p14----14-16----------16----------------------16-----------|
D|----------14-----------------------------------------------------|
A|-----------------------------------------------------------------|
E|-----------------------------------------------------------------|

E|----------------------------------------------------------------|
B|----------------------------------------------------------------|
G|-16-14----14-16p14----14----------------------------------------|
D|-------16----------16----16-14-16p14----14----------------------|
A|-------------------------------------16----16-14-16p14-12-14-12-|
E|----------------------------------------------------------------|

E|-----------------|
B|-----------------|
G|-----------------|
D|----------12-14--|
A|----12-14--------|
E|-14--------------|

E|-----------------------------------------------------12-|
B|-------------------------------------------12-13-15-----|
G|----11-12-14--12-11-12-11--------11-12-14---------------|
D|-14-----------------------12--14------------------------|
A|--------------------------------------------------------|
E|--------------------------------------------------------|

E|-12-14-15-17--15-14---12/17--17-19-20-19-17\15\14---|
B|----------------------------------------------------|
G|----------------------------------------------------|
D|----------------------------------------------------|
A|----------------------------------------------------|
E|----------------------------------------------------|

E|-15p14p12-|-17p15p14-|-19p17p15-|-20p19p17-|-22p20p19-|
B|----------|----------|----------|----------|----------|
G|----------|----------|----------|----------|----------|
D|----------|----------|----------|----------|----------|
A|----------|----------|----------|----------|----------|
E|----------|----------|----------|----------|----------|
        (8x)       (8x)       (4x)       (2x)       (2x)
E|-22b24--22b24--22b24--22b24--22b24--------|
B|------------------------------------------|
G|------------------------------------------|
D|------------------------------------------|
A|------------------------------------------|
E|--------------------------------------19\-|

[Ponte] E5  F5  D5  E5  G5  F5
        E5  F5  D5  E5  G5  F5
        E5  F5  D5  E5  G5  F5
        E5  F5  D5  E5  G5  F5
        E5  F5  D5  E5  G5  F5
        E5  F5  D5  E5  G5  F5
        E5  F5  D5  E5  G5  F5
        E5  F5  D5  E5  G5  F5

Riff D:
E|-------------------------------------------|
B|-------------------------------------------|
G|-------------------------------------------|
D|-----2-----2---2------------2-----2---3--0-|
A|-----2-----2---2------------2-----2---3--0-|
E|-0-0---0-0---0----------0-0---0-0---0------|

Guitar 1:
E|-----------------------------------|
B|-15b17r15-13-12----12b13r12-10-13~-|
G|-----------------------------------|
D|-----------------------------------|
A|-----------------------------------|
E|-----------------------------------|

Guitar 2:
E|-----------------------------------|
B|-14b16r14-12-11----11b12r11-9-12~--|
G|-----------------------------------|
D|-----------------------------------|
A|-----------------------------------|
E|-----------------------------------|

Guitar 3:
E|---------|---------|
B|-19p16p0-|-20p17p0-|
G|---------|---------|
D|---------|---------|
A|---------|---------|
E|---------|---------|
       (4x)       (4x)

[Final]
E|--------------------------------|
B|--------------------------------|
G|--------------------------------|
D|------------9---------------9-7-|
A|------------7---------------7-5-|
E|-0-0-0-0-0-------0-0-0-0-0------| (2x)

E|---------------------------------|
B|---------------------------------|
G|---------------------------------|
D|------------9---------------9--7-|
A|------------10--------------10-9-|
E|-0-0-0-0-0-------0-0-0-0-0-------| (2x)

Guitar 2:
E|--------------------------------------------|
B|-------------------7-8-7--------------------|
G|---------------8-9-------9-8----------------|
D|--------7-9-10---------------10-9-7---------|
A|-7-9-10-----------------------------10-9-7--|
E|--------------------------------------------|
Acordes para:
    Composição: Cliff Burton / James Hetfield / Kirk Hammett / Lars UlrichColaboração e revisão:
    • Marcos Paulo
    • Pedro Finco
    • Sergio Mello

    0 comentários

      mostrar mais comentários

      Conseguiu tocar?

      32tocaram3ainda não

      Grave um vídeo tocando Creeping Death e mande pra gente!

      00:00 / 00:00
      outros vídeos desta música
      repetirqualidadeautomática
      Outro vídeos desta música
        00:00 / 00:00
        automática
        OK