Enviar cifraEntrar

Cyanide

Metallica

Tab de baixo: Principal
exibições 1.822
Riff A: (x4)

G|----------------------------------|
D|----------------------------------|
A|--------------1---1---1-----------| 
E|--0--0--0---------------0-0-0-----|

Bass Solo Riff: (x24)

G|---------------|
D|---------------|
A|---------------|
E|--0---0-0---0--|

Riff B: (x8)

G|------------|
D|------------|
A|-------7-5--|
E|--0--0------|

Verse (Bass Solo Riff (x16)

Riff C: 

G|------------------------------------------------------------------------|
D|------------------------------------------------------------------------|
A|--5-5-5-5-5-5-5-5-5-5-5-5-5-5-5-5--2-2-2-2-2-2-2-2-2-2-2--2--2--5--5-5--|
E|------------------------------------------------------------------------|

Riff B (x4)
Riff C 
Riff B (x5)

Chorus:

G|---------------------------------------|
D|---------------------------------------|
A|---------------------------------------|
E|--3-3-3-0-0-0-0-0-0-0-0-0-0-0-0-0-0-0--|

   Suicide....
G|-----------------------------------------------------------------------|
D|--------------------------------------5h7------------------------------|
A|--7-----------5-6-7-------------5-6-7-----7-6--------------------------|
E|----5-4-0-0-0-------5-4-0-0-0-5---------------5-4-0-0-0-0-0-0-0-0-0-0--|

   Cyanide....
G|-------------------------------------------------------------------------|
D|-------------------------------------------------------------------------|
A|--2-----------2-3-4---------------2-3-4--2h4-4-3-2-----------1-1-1-------|
E|----2-1-0-0-0-------2-1-0-0-0-2-3------------------2-1-0-0-0-------0-0-0-|

Bass Solo Riff: (x18)
Riff B (x8)
Verse (Bass Solo Riff (x16)
Riff C
Riff B (x4)
Riff C
Riff B (x5)
Chorus

Riff D (x2)

G|--------------------------------------------------|
D|--------------------------------------------------|
A|--------------------------------------------------|
E|--0--0-0-0--0--0-0-0--3-4-5-4---5-5-5--4-3-0-3-0--|

Riff E: (x4)

G|---------------------|
D|---------------------|
A|--3-3-3-3-4-1-3-(3)--|
E|---------------------|

Verse 2 (x8)

G|-------------|
D|----5--------|
A|------7-(7)--|
E|--0----------|

Riff E: (x4)
Verse 2: (x8)
During Solo Riff A (Riff F (x8)

G|---------------|
D|---------------|
A|---------------|
E|--5--3--0-(0)--|


During Solo Riff B (x2)

G|-----------------|-------------|
D|-*-------------*-|-*---------*-|
A|-*-------------*-|-*---------*-|
E|--3--5--5-3-0-3--|--0-3-4-3-0--|

During Solo Riff C

G|-----------------|----------------------------|
D|-*-------------*-|----------------------------|
A|-*-------------*-|----------------------------|
E|--3--5--5-3-0-3--|--0-0-0-0-0-0-0--0-0-0-0-0--| 

                  (X4)
G|-------------------|
D|-*---------------*-|
A|-*-12-11-10-(10)-*-|
E|-------------------|

There is a pause where there is only guitar and drums, then:

         (x4)
G|-----------|
D|-*--------*|
A|-*--------*|
E|--0-0-5h7--|

Riff C
Riff B (x8)
Bass Solo Riff (x20)
Riff B (x8)
Riff C 
Riff B (x4)
Riff C
Riff B (x5)
Chorus
Riff A (x4)
  • 1
  • 2
  • 3
  • 4
  • 5
  • 6
  • 7
  • 8
  • 9
  • 10
  • 11
  • 12

    0 comentários

      mostrar mais comentários

      Conseguiu tocar?

      1tocaram0ainda não

      Grave um vídeo tocando Cyanide e mande pra gente!

      00:00 / 00:00
      outros vídeos desta música
      repetirqualidadeautomática
      • automática
      Outro vídeos desta música
        00:00 / 00:00
        automática
        • automática
        Acordes para:violão e guitarra
        dificuldadeexibiçõescontribuições
        1 versão de Tab de baixoexibiçõescontribuições
        1 versão de Tab de bateriaexibiçõescontribuições
        1 versão de Guitar Proformatodownloadscontribuição
        fecharplay/pause subir/descer velocidade
        fechar
        OK