Cifra Club

Death Is Not The End

Metallica

Cifra: Principal
exibições 2.124
Tom: C
(intro riff 1)
D |----------------------------------------------------------------------|
A |----------------------------------------------------------------------|
F |----------------------------------------------------------------------|
C |-----------------------13-13-13-12----12-15-15-15-12---12-10h12-10h12-|
G |-1---1-0---0-3--3--0--------------------------------------------------|
C |-1---1-0---0-3--3--0--------------------------------------------------|

(intro riff 2)
D |-------------------------------|
A |-------------------------------|
F |-------------------------------|
C |-------------------------------|
G |-1---1-0---0-3--3--0-----------|
C |-1---1-0---0-3--3--0-0-0-0-0-0-|

(intro riff ending)
D |--------------------------------------------------|-------------|
A |--------------------------------------------------|-------------|
F |--------------------------------------------------|-------------|
C |--------------------------------------------------|-------------|
G |-6---6-5---5-8--8--5-----8---8-7---7---10--10--7--|-0-----------|
C |-6---6-5---5-8--8--5-----8---8-7---7---10--10--7--|-0-----------|

(main riff (12 times, last 4 times kirk plays with wah)
D |----------------------------|
A |----------------------------|
F |----------------------------|
C |----------------------------|
G |---------------------3-2-1--|
C |-2--0-1-2-2--2-0-2-5--------|

D |-----------------------------------------------------------------|
A |-----------------------------------------------------------------|
F |-----------------------------------------------------------------|
C |-----------------------------------------------------------------|
G |-----------------------------------------------------------------|
C |-0-1-2---2---2---2---2---2----2---0-1-2---2---2---2---2---2---2--|

D |-----------------------------------------------------12-12-12-12-|
A |-----------------------------------------------------12-12-12-12-|
F |--------------------------------------------------------wah-wah--|
C |-----------------------------------------------------------------|
G |-3-2----------------------------------------------2--------------|
C |-----2---2---2---2---2---2----2---0-1-2---2---2---2--------------|

(verse riff)
D |----------------------------------------------------------------|
A |----------------------------------------------------------------|
F |----------------------------------------------------------------|
C |----------------------------------------------4b5r4-------------|
G |-2h4--4--4---4-2h4--4--4---4-2h4--4--4---4--4-------4b5r4--4-2--|
C |-2h4--4--4---4-2h4--4--4---4-2h4--4--4---4--4--------------4-2--|

(bridge riff 1)
D |-----------------------------|
A |-----------------------------|
F |-----------------------------|
C |-----------------------------|
G |-0-2-3--0-2-3--0-2-3--0-2-3--|
C |-0-2-3--0-2-3--0-2-3--0-2-3--|

(chorus 1 part 1)
D |-----------------------------------------------------------|
A |-----------------------------------------------------------|
F |-----------------------------------------------------------|
C |-5-5------------5-5----------------------------------------|
G |-----7---5-7--------7---5-5----7-7-------------------------|
C |-----------------------------------9---7-9----9-9-7---5-5--|
/// james
\\\ kirk
D |-----------------------------------------------------------|
A |-----------------------------------------------------------|
F |-----------------------------------------------------------|
C |-----------------------------------------------------------|
G |-2--------------2--------------2--------------2------------|
C |-2--------------2--------------2--------------2------------|

(chorus 1 part 2)
D |---------------------------------|
A |---------------------------------|
F |---------------------------------|
C |---------------------------------|
G |-2-2-2-0-2-0-2-2-2-0-2-0-3-2-1---|
C |-2-2-2-0-2-0-2-2-2-0-2-0---------|

(pre chorus 2)
D |-------------------------|
A |-------------------------|
F |-------------------------|
C |-------------------------|
G |-2---0-2--2---0-2--3-2-1-|
C |-2---0-2--2---0-2--------|

(chorus 2)
D |---------------------------------------------|
A |---------------------------------------------|
F |---------------------------------------------|
C |---------------------------------------------|
G |-2----2--2-----2--2----3----3--3-----3--3----|
C |-2--0-2--2---0-2--2--0-3--0-3--3---0-3--3--0-|

D |------------------------------------------------|
A |------------------------------------------------|
F |------------------------------------------------|
C |-5----5--5-----5--5-----------------------------|
G |-3--0-3--3---0-3--3--0-5----5--5-----5--5-5-4-3-|
C |-----------------------5--0-5--5---0-5--5-5-4-3-|

(solo)
D |--------------------------------------------------------------|
A |--------------------------------------------------------------|
F |-9---9---9-7s10s7--12s9--9---9-7s9s10-12--14s16-16---16-16-16-|
C |--------------------------------------------------------------|
G |-7---7---7-5s8s-5--10s7--7---7-5s7s8--10--12s14-14---14-14-14-|
C |--------------------------------------------------------------|

D |--------------------------|
A |--------------------------|
F |-19--19s21-21---21--21----|
C |--------------------------|
G |-17--17s19-19---19--19----|
C |--------------------------|

Wah starts here
D |--------------------------------|
A |-12------12------12-------------|
F |-14b16---14b16---14b16r14-14b16-|
C |--------------------------------|
G |--------------------------------|
C |--------------------------------|

D |-----------------------------------------|
A |-----------------------------------------|
F |-b16-16-16-16-16-16-16-16-14b16r14-14b16-|
C |-----------------------------------------|
G |-----------------------------------------|
C |-----------------------------------------|

D |--------------------------------------------------------------|
A |----12-15-15b17----12-15-15b17----12-15-15b17----12-15-15b17--|
F |-14-------------14-------------14-------------14--------------|
C |--------------------------------------------------------------|
G |--------------------------------------------------------------|
C |--------------------------------------------------------------|

D |-------12-------12-------12-------------------------------------------|
A |-15b17----15b17----15b17----15p12--15p12--12--------------------------|
F |---------------------------------14-----14--14-12-14-12----12---------|
C |--------------------------------------------------------14----14-12---|
G |-------------------------------------------------------------------14-|
C |----------------------------------------------------------------------|

D |-17p14----14-17p14----14-17p14----14-17p14----14---------------|
A |-------17----------17----------17----------17------------------|
F |---------------------------------------------------------------|
C |---------------------------------------------------------------|
G |---------------------------------------------------------------|
C |---------------------------------------------------------------|

(ending of solo)
D |-12-10-0-12-10-0-12-10-0-12-10-0-12-10-0-12-10-0-12-10-0-12-10-0-|
A |-----------------------------------------------------------------|
F |-----------------------------------------------------------------|
C |-----------------------------------------------------------------|
G |-----------------------------------------------------------------|
C |-----------------------------------------------------------------|

D |-13-12-0-13-12-0-13-12-0-13-12-0-13-12-0-13-12-0-13-12-0-13-12-0-|
A |-----------------------------------------------------------------|
F |-----------------------------------------------------------------|
C |-----------------------------------------------------------------|
G |-----------------------------------------------------------------|
C |-----------------------------------------------------------------|

D |-20-17-0-20-17-0-20-17-0-20-17-0-20-17-0-20-17-0-20-17-0-20-17-0-|
A |-----------------------------------------------------------------|
F |-----------------------------------------------------------------|
C |-----------------------------------------------------------------|
G |-----------------------------------------------------------------|
C |-----------------------------------------------------------------|

D |-19-15-0-19-15-0-19-15-0-19-15-0-19-15-0-19-15-0-19-15-0-19-15-0-|
A |-----------------------------------------------------------------|
F |-----------------------------------------------------------------|
C |-----------------------------------------------------------------|
G |-----------------------------------------------------------------|
C |-----------------------------------------------------------------|

(interlude riff) (breakdown)
D |-------------------------|-----------|
A |-------------------------|-----------|
F |-------------------------|-----------|
C |-------------------------|-----------|
G |-0-----------8-7-6-5-6-7-|-5-4-3-2-3-|
C |-0-trem-pick-8-7-6-5-6-7-|-5-4-3-2-3-|

D |--------------------|
A |--------------------|
F |--------------------|
C |--------------------|
G |-0-----------10-9-8-|
C |-0-trem-pick-10-9-8-|

D |-------------------------------|
A |-------------------------------|
F |-------------------------------|
C |-------------------------------|
G |-1---1-0---0-3--3--0-----------|
C |-1---1-0---0-3--3--0-0-0-0-0-0-|

D |-------------------------------|
A |-------------------------------|
F |-------------------------------|
C |-------------------------------|
G |-6---6-5---5-8--8--5-----------|
C |-6---6-5---5-8--8--5-5-5-5-5-5-|

D |---------------------------------|
A |---------------------------------|
F |---------------------------------|
C |---------------------------------|
G |-8---8-7---7-10--10--7-----------|
C |-8---8-7---7-10--10--7-7-7-7-7-7-|

D |----------------------------------------------------------------------|
A |----------------------------------------------------------------------|
F |----------------------------------------------------------------------|
C |-----------------------13-13-13-12----12-15-15-15-12---12-10h12-10h12-|
G |-1---1-0---0-3--3--0--------------------------------------------------|
C |-1---1-0---0-3--3--0--------------------------------------------------|

D |-------------------------------------------------------|
A |-------------------------------------------------------|
F |-------------------------------------------------------|
C |-13-13-13-12---12-15-15-15-12---12-15s17-15s17--15s14--|
G |-------------------------------------------------------|
C |-------------------------------------------------------|

D |-----------------------------------------------|----------------|
A |-----------------------------------------------|----------------|
F |-----------------------------------------------|----------15-14-|
C |-15-15-15-14---14-17-17-17-14---14-12h14-12h14-|-15-14-17-------|
G |-----------------------------------------------|----------------|
C |-----------------------------------------------|----------------|

(final verse)
D |--------------|
A |--------------|
F |--------------|
C |--------------|
G |-0h2-2--2--2--|
C |-0h2-2--2--2--|

D |--------------|
A |--------------|
F |--------------|
C |--------------|
G |-2h4-4--4--4--|
C |-2h4-4--4--4--|

(ending chords)
D |----------------------------------------------------------------|
A |----------------------------------------------------------------|
F |----------------------------------------------------------------|
C |-3--------------------------------------------------------------|
G |-1------------------------------0-------------------------------|
C |--------------------------------0-------------------------------|
Acordes para:

    0 comentários

      mostrar mais comentários

      Conseguiu tocar?

      0tocaram0ainda não

      Grave um vídeo tocando Death Is Not The End e mande pra gente!

      00:00 / 00:00
      outros vídeos desta música
      repetirqualidadeautomática
      Outro vídeos desta música
        00:00 / 00:00
        automática
        OK