Cifra Club

Aprenda

Dyers Eve

Metallica

Cifra: Principal (violão e guitarra)
tom: D
E|------------------|-----------|---------|---------|----------|
B|------------------|-----------|---------|---------|----------|
G|------------------|-----------|---------|---------|----------|
D|------------------|--2----3---|--2----5-|-2----3--|--2---2-3-|
A|-2-3-2-3-2-3-2-3--|--2----3---|--2----5-|-2----3--|--2---2-3-|
E|------------------|--0----1---|--0----3-|-0----1--|--0---0-1-|
   PM.............|

E|---------|---------|----------|-----------------|
B|---------|---------|----------|-----------------|
G|---------|---------|----------|-----------------|
D|--2----3-|--2----5-|--2----3--|--2--------------|
A|--2----3-|--2----5-|--2----3--|--2--------------|
E|--0----1-|--0----3-|--0----1--|--0--0--1--0--1--|
                                      PM........|

  Base Fig 1                                             Fim Base Fig 1
E|-------------------|-------------|------------------|---------------||
B|-------------------|-------------|------------------|---------------||
g|o------------------|-------------|------------------|--------------o||
d|o--2-------3-------|--2-------5--|--2-------3-------|--2-----------o||
A|---2-------3-------|--2-------5--|--2-------3-------|--2------------||
E|---0--0-0--1--0-0--|--0--0-0--3--|--0--0-0--1--0-0--|--0--0-1-0-1---||
        PM.|    PM.|       PM.|          PM.|    PM.|    PM....|

                     Tempo=194
                     Base Fig 2
E|---------|---------|---------------------------|----------------------------|
B|---------|---------|---------------------------|----------------------------|
G|---------|---------|---------------------------|----------------------------|
D|-2-------|-(2)-----|-4--------------3\4--4--4--|-----------------5\4--4--4--|
A|-2-------|-(2)-----|-2--2-2-2-2-2-2-5\2--0--2--|-2-2-2-2-2-2-2-2-3\2--0--2--|
E|-0-------|-(0)-----|---------------------------|----------------------------|
                      PM.............|            PM.............|

E|----------------------------|---------------------------------|
B|----------------------------|---------------------------------|
G|----------------------------|---------------------------------|
D|-----------------5\4--4--4--|-------------------------5---4---|
A|-2-2-2-2-2-2-2-2-3\2--0--2--|-2-2-2-2-2-2-2-2-2-3-2-----------|
E|----------------------------|---------------------------------|
  PM..............|            PM............................|

E|---------------------------|---------------------------|
B|---------------------------|---------------------------|
G|---------------------------|---------------------------|
D|-4--------------5\4--4--4--|-----------------3\2----4--|
A|-2--2-2-2-2-2-2-3\2--0--2--|-2-2-2-2-2-2-2-2-5\4----0--|
E|---------------------------|---------------------------|
      PM.........|            PM.............|

                                              Fim Base Fig 2
E|---------------------------|------------------------------|
B|---------------------------|------------------------------|
G|---------------------------|------------------------------|
D|-4--------------3\2--4--4--|------------------------5--4--|
A|-2--2-2-2-2-2-2-5\4--0--2--|-2-2-2-2-2-2-2-2--3--2--------|
E|---------------------------|------------------------------|
      PM.........|            PM.........................|

E|--------------------|-------------------|---------------------------|
B|--------------------|-------------------|---------------------------|
G|--------------------|-------------------|---------------------------|
D|--------------------|-------------------|-4-------------------------|
A|-2---5-5-2----3-3-2-|----5-5-2----5-5-2-|-2--2-2-2-2-2-2-0--2--0--2-|
E|-0---3-3-0----5-5-0-|----3-3-0----3-3-0-|---------------------------|
                                               PM....................|

E|------------------------|------------------------|-----------------------|
B|------------------------|------------------------|-----------------------|
G|------------------------|------------------------|-7----------5----------|
D|-5----5--5--4--4--------|-2-----------2----------|-7----------5----------|
A|-3----3--3--2--2--------|-2-----------2----------|-5----------3----------|
E|------------------3p2p0-|-0----0-0-0--0----0-0-0-|------0-0-0------0-0-0-|
        PM........|

E|---------------------------|------------------------|-----------|-----------|
B|---------------------------|------------------------|-----------|-----------|
G|---------------------------|------------------------|-----------|-7----5----|
D|-4-------------------------|-5----5--5--4--4--------|-9----9----|-7----5----|
A|-2--2-2-2-2-2-2-0--2--0--2-|-3----3--3--2--2--------|-7----7----|-5----3----|
E|---------------------------|------------------3p2p0-|-0----0----|-----------|
      PM....................|       PM........|

E|----------------------------|---------------------------|
B|----------------------------|---------------------------|
G|----------------------------|---------------------------|
D|-4--------------------------|-5-------------------------|
A|-2--2-2-2-2-2-2-0--2--0--2--|-3----3-3-3-3-3p2p0--2p0---|
E|----------------------------|-------------------------3-|
      PM....................|        PM..................|

(Base Fig 2 1x)

E|--------------------|
B|--------------------|
G|--------------------|
D|-2----2--2--2----2--|
A|-2----2--2--2----2--|
E|-0----0--0--0----0--|

Versos:

E|---------------------|------------|-------------------|--------------------|
B|---------------------|------------|-------------------|--------------------|
G|---------------------|------------|-------------------|-------------4---5--|
D|--4------------------|--5---------|--7----------------|--2----------4---5--|
A|--4------------------|--5---------|--7----------------|--2----------2---3--|
E|--2------------------|--3---------|--5----------------|--0-----------------|
 Dear Mother,Dear Father            What is this hell you have put me through

E|------------------|-----------|-------------------|-----------------|
B|------------------|-----------|-------------------|-----------------|
G|------------------|-----------|-------------------|-----------------|
D|--4---------------|--5--------|--2----------------|--7--------2--5--|
A|--4---------------|--5--------|--2----------------|--7--------2--5--|
E|--2---------------|--3--------|--0----------------|--5--------0--3--|
 Believer, deceiver             Day in, Day out, live my life for you

                                                      Coda
E|----------------------|-------------|-------------------|--------------------|
B|----------------------|-------------|-------------------|--------------------|
G|----------------------|--7----------|-------------------|--------------------|
D|--4-------------------|--7----------|--7----------------|--5-----------------|
A|--4-------------------|--5----------|--7----------------|--5-----------------|
E|--2-------------------|-------------|--5----------------|--3-----------------|
 Pushed onto me whats wrong or right Hidden from this thing that they call life

E|------------------|---------------------------|----------------------------|
B|------------------|---------------------------|----------------------------|
G|--5---4--5-5-6----|---------------------------|----------------------------|
D|--5---4--5-5-6----|-4--------------3\4--4--4--|-----------------5\4--4--4--|
A|--3---2--3-3-4----|-2--2-2-2-2-2-2-5\2--0--2--|-2-2-2-2-2-2-2-2-3\2--0--2--|
E|------------------|---------------------------|----------------------------|
                         PM.........|            PM.............|

E|------------------------|-------------|----------------------|----------------|
B|------------------------|-------------|----------------------|----------------|
G|------------------------|-------------|----------------------|---------4--5---|
D|--4---------------------|--5----------|--7-------------------|--2------4--5---|
A|--4---------------------|--5----------|--7-------------------|--2------2--3---|
E|--2---------------------|--3----------|--5-------------------|--0-------------|
 Dear Mother, dear Father               Every thought I'd think you'd disapprove

E|----------------|-------------|----------------|---------------|
B|----------------|-------------|----------------|---------------|
G|----------------|-------------|----------------|---------------|
D|--4-------------|--5----------|--2-------------|--7------4--5--|
A|--4-------------|--5----------|--2-------------|--7------4--5--|
E|--2-------------|--3----------|--0-------------|--5------2--3--|
 Curator,dictator               Always censoring  my  every move

(Os versos seguem o padrão acima) 

O resto dos versos são:

F#5                  D5
Children are seen but not heard

A5                   G5
Tear out every thing inspired

E|----------------------|---------------------------|----------------------------|
B|----------------------|---------------------------|----------------------------|
G|-------------------5--|---------------------------|----------------------------|
D|-------------------5--|-4--------------3\4--4--4--|-----------------5\4--4--4--|
A|-X-X-X--X---X-X-X--3--|-2--2-3-2-3-2-3-5\2--0--2--|-2-3-2-3-2-3-2-3-3\2--0--2--|
E|-X-X-X--X---X-X-X-----|---------------------------|----------------------------|
                          PM............|            PM.............|

E|----------------------------|---------------------------------|
B|----------------------------|---------------------------------|
G|----------------------------|---------------------------------|
D|-----------------5\4--4--4--|-------------------------5---4---|
A|-2-3-2-3-2-3-2-3-3\2--0--2--|-2-3-2-3-2-3-2-3-3---2-----------|
E|----------------------------|---------------------------------|
  PM..............|             PM............................|

E|--------------------|---------------------------|
B|--------------------|---------------------------|
G|--------------------|---------------------------|
D|--------------------|-4-------------------------|
A|-2---5-5-2----3-3-2-|-2--2-3-2-3-2-3-0--2--0--2-|
E|-0---3-3-0----5-5-0-|---------------------------|
                           PM....................|

E|------------------------|---------------------|
B|------------------------|---------------------|
G|------------------------|---------------------|
D|-5----5--5--4--4--------|-2-----------2----2--|
A|-3----3--3--2--2--------|-2-----------2----2--|
E|------------------3p2p0-|-0----3p2p0--0----0--|
        PM........|

Refrão:

 Innocence                  Torn from me     without your shelter
E|--------------------------|---------------------|----------------------|
B|--------------------------|---------------------|----------------------|
G|--------------------------|---------------------|----------------------|
D|--------------------------|-2---------2----2----|--------7-----------7-|
A|-2--2--2--2--X-X-2--2--2--|-2---------2----2----|-5-5-5--5----5-5-5--5-|
E|-0--0--0--0--X-X-0--0--0--|-0----3p0--0----0----|----------------------|
      PM..................|       PM..|             PM...|      PM...|

 Barred reality I'm living blindly
E|--------------------------|---------------------|------------------------|
B|--------------------------|---------------------|------------------------|
G|--------------------------|---------------------|--------5----5----------|
D|--------------------------|-2---------2----2----|--------5----5----------|
A|-2--2--2--2--X-X-2--2--2--|-2---------2----2----|-0-2-3--3----3----3-3-2-|
E|-0--0--0--0--X-X-0--0--0--|-0----3p0--0----0----|------------------------|
      PM..................|       PM..|             PM...|           PM...|

E|------------------------||
B|------------------------||
G|-----------------------o||
D|-----------------------o||
A|--2-2-2--2-2-2--2-2-2---||
E|------------------------||
   PM..................|

E|---------------------------|----------------------------|
B|---------------------------|----------------------------|
G|---------------------------|----------------------------|
D|-4--------------3\4--4--4--|-----------------5\4--4--4--|
A|-2--2-3-2-3-2-3-5\2--0--2--|-2-3-2-3-2-3-2-3-3\2--0--2--|
E|---------------------------|----------------------------|
      PM.............|         PM.............|

E|----------------------------|---------------------------------|
B|----------------------------|---------------------------------|
G|----------------------------|---------------------------------|
D|-----------------5\4--4--4--|-------------------------5---4---|
A|-2-3-2-3-2-3-2-3-3\2--0--2--|-2-3-2-3-2-3-2-3-3---2-----------|
E|----------------------------|---------------------------------|
  PM..............|             PM............................|

E|---------------------------|---------------------------|
B|---------------------------|---------------------------|
G|---------------------------|---------------------------|
D|-4--------------5\4--4--4--|-----------------3\2----4--|
A|-2--2-3-2-3-2-3-3\2--0--2--|-2-3-2-3-2-3-2-3-5\4----0--|
E|---------------------------|---------------------------|
      PM.........|             PM.............|

E|---------------------------|------------------------------|
B|---------------------------|------------------------------|
G|---------------------------|------------------------------|
D|-4--------------3\2--4--4--|------------------------------|
A|-2--2-3-2-3-2-3-5\4--0--2--|-2-3-2-3-2-3-2-3--2--3--2--3--|
E|---------------------------|------------------------------|
      PM.........|             PM.........................|

E|-----------------|
B|-----------------|
G|-----------------|
D|-----------------|
A|--2--3--2-----3--|
E|--------0--1-----|
    PM...........|

                                                              3x
E|-------------------|-------------|------------------|---------------||
B|-------------------|-------------|------------------|---------------||
g|o------------------|-------------|------------------|--------------o||
d|o--2-------3-------|--2-------5--|--2-------3-------|--2-----------o||
A|---2-------3-------|--2-------5--|--2-------3-------|--2------------||
E|---0--0-0--1--0-0--|--0--0-0--3--|--0--0-0--1--0-0--|--0--0-1-0-1---||
         PM.|    PM.|       PM.|          PM.|    PM.|    PM....|

Solo:

E|--------------|
B|--------------|
G|------19b21---|
D|--------------|
A|--------------|
E|--------------|

E|---------12-----------12-----------12-----------12----|
B|------12----15-----12----15-----12----15-----12----15-|
G|-14b16--------14b16--------14b16--------14b16---------|
D|------------------------------------------------------|
A|------------------------------------------------------|
E|------------------------------------------------------|

E|-12h15p12-------12h15p12-------12h15p12----12h15p14\---|
B|----------12h15----------12h15----------15----------14-|
G|-------------------------------------------------------|
D|-------------------------------------------------------|
A|-------------------------------------------------------|
E|-------------------------------------------------------|

E|-14h17p14----19-p14--17-14-17p14----14/20----x-22b24-|
B|----------17---------------------16-------19---------|
G|-----------------------------------------------------|
D|-----------------------------------------------------|
A|-----------------------------------------------------|
E|-----------------------------------------------------|

                  Harm.
E|-(22)-~-~------|------/------------|-------------------------|
B|---------------|--12-/-------------|-(12)--------------------|
G|---------------|--12/--------------|-(12)-------12-----------|
D|---------------|pull bar up 2 tones|---------------14-----12-|
A|---------------|-------------------|-------------------------|
E|---------------|-------------------|-------------------------|

E|------------------------------------|--------------------------|
B|------------------------------------|-----------------------10/|
G|------------------------------------|--------------------------|
D|--14--12----------------------------|--------------------------|
A|----------14--13--12--10--12--12pbr-|--p10--12--10-------------|
E|------------------------------------|---------------12-~-~-----|

E|---------------------------------14--|
B|-14b15----14-15p14----14-15--17------|
G|-------------------16----------------|
D|-------------------------------------|
A|-------------------------------------|
E|-------------------------------------|

E|-15p14----15--17--17/19-p17p15-----------15/|
B|-------17----------------------19p17p15\----|
G|--------------------------------------------|
D|--------------------------------------------|
A|--------------------------------------------|
E|--------------------------------------------|

E|-17-p15p14h15p14------------------------------|
B|-----------------17p14/17-17p15p14h15p14------|
G|------------------------------------------16--|
D|----------------------------------------------|
A|----------------------------------------------|
E|----------------------------------------------|

E|------------------------------------------|
B|--14--------------------------------------|
G|-----16--14--16-14------14h---16~---11/14-|
D|-------------------16---------------------|
A|------------------------------------------|
E|------------------------------------------|

E|--14-------12------10-----9------|----------------------------------|
B|-----------------------------7/9-|--12p10p9--10p9-----10-9----------|
G|-(14)--13------11------9---------|----------------11-------11--7~---|
D|---------------------------------|----------------------------------|
A|---------------------------------|----------------------------------|
E|---------------------------------|----------------------------------|

E|-------------------------------|--------------------------|----------|
B|-------------------------------|--------------------------|----------|
G|--9p7p6--7p6-------------------|--------------------------|----------|
D|-------------9p7-9p7p6--7p6----|--6-----------------------|----------|
A|----------------------------9--|----9p7--9p7-5h7-9\-------|----------|
E|-------------------------------|--------------------------|----------|

E|--------------------------------|--------------------------------|
B|--------------------------------|--------------------------------|
G|------------6----7----6---------|-------4----5----7----5----4----|
D|-------7-------------------7----|--5-----------------------------|
A|--9-----------------------------|--------------------------------|
E|--------------------------------|--------------------------------|

E|--------------------------------|-------------------------------------|
B|--------------------------------|-------------------------------------|
G|-------6----7----9----7----6----|--7---6h7p6--------------------------|
D|--7-----------------------------|-------------9----7----5----4----2---|
A|--------------------------------|-------------------------------------|
E|--------------------------------|-------------------------------------|

E|-------------------------------------|
B|-------------------------------------|
G|-------------------------------------|
D|-5p4p0-5p4p0-5p4p0-5p4p0-5p4p0-5p4p0-|
A|-------------------------------------|
E|-------------------------------------|

E|---------------------------------|
B|---------------------------------|
G|---------------------------------|
D|-7p5p0-7p5p0-7p5p0-7p5p0-7p5p0-7p|
A|---------------------------------|
E|---------------------------------|

E|----------------------------------------|
B|----------------------------------------|
G|----------------------------------------|
D|-9p7p0-9p7p0-9p7p0-9/11p9p0-11p9p0-11p9h|
A|----------------------------------------|
E|----------------------------------------|

E|------------------------------------|----------|---------|
B|------------------------------------|----------|---------|
G|-----------------------------11\----|----------|---------|
D|-11/12p11p0-12p11p0-12p11p0---------|----------|---------|
A|------------------------------------|----------|---------|
E|------------------------------------|----------|---------|

E|-17p12----12h17p12-----12h17p12-12h17p12----12-12h17p12-|
B|-------15-----------15-------------------15-------------|
G|--------------------------------------------------------|
D|--------------------------------------------------------|
A|--------------------------------------------------------|
E|--------------------------------------------------------|

E|--12h17p12----12h17p12---17--12h17p12----12h17p12----|
B|-----------15-------------------------15----------15-|
G|-----------------------------------------------------|
D|-----------------------------------------------------|
A|-----------------------------------------------------|
E|-----------------------------------------------------|

    t        t        t        t        t        t        t       t
E|-19p15p12-19p15p12-19p15p12-19p15p12-19p15p12-19p15p12-19p15p12-19p15p12-|
B|-------------------------------------------------------------------------|
G|-------------------------------------------------------------------------|
D|-------------------------------------------------------------------------|
A|-------------------------------------------------------------------------|
E|-------------------------------------------------------------------------|

    t        t        t
E|-19p15p12-19p15p12-19p15p12h15-12/22b24--r22b24--|
B|-------------------------------------------------|
G|-------------------------------------------------|
D|-------------------------------------------------|
A|-------------------------------------------------|
E|-------------------------------------------------|

E|--------------------------------|---------------------------------|
B|--------------------------------|--10----8----7-------------------|
G|------------6----7----6---------|------------------9----7----6----|
D|-------7-------------------7----|---------------------------------|
A|--9-----------------------------|---------------------------------|
E|--------------------------------|---------------------------------|

E|--------------------------------|-------------------------------------|
B|--------------------------------|-------------------------------------|
G|-------6------------------------|-------------------------------------|
D|--9---------9----7----9----7----|-5-5-5-5-7-7-7-7-9-9-9-9-10-10-10-10-|
A|--------------------------------|-------------------------------------|
E|--------------------------------|-------------------------------------|

E|-----------------------------------------|
B|-----------------------------------------|
G|-7-7-7-7-9-9-9-9-11-11-11-11-12-12-12-12-|
D|-----------------------------------------|
A|-----------------------------------------|
E|-----------------------------------------|

E|--------------------------------------------|
B|--------------------------------------------|
G|-12h14p12p0-11h12p11p-0--9h11p9p0-7h9p7p-0--|
D|--------------------------------------------|
A|--------------------------------------------|
E|--------------------------------------------|

E|-------------------------------------------|
B|-------------------------------------------|
G|-5h7p5p0-4h5h7p5p0--6h7h9p7p0--7h9h11p9p0--|
D|-------------------------------------------|
A|-------------------------------------------|
E|-------------------------------------------|

Tempo=168

 Base Fig 3
E|----------------------------|----------------------------|
B|----------------------------|----------------------------|
G|----------------------------|----------------------------|
D|----------------3/2p02------|----------------3/2p02------|
A|----------------3/2p02------|----------------3/2p02------|
E|-0--0-0-0--0-0--------------|-0--0-0-0--0-0--------------|
   PM...........|              PM...........|

E|----------------------------|---------------------------|
B|----------------------------|---------------------------|
G|----------------------------|---------------------------|
D|----------------3/2p02------|---------------------------|
A|----------------3/2p02------|---------------------------|
E|-0--0-0-0--0-0--------------|-0--0-0-0--0-0-0--1--0--1--|
   PM...........|               PM......................|

E|----------------------------|----------------------------|
B|----------------------------|----------------------------|
G|----------------------------|----------------5\4------4--|
D|----------------3/2p02------|----------------3\2------0--|
A|-2--------------3/2p02------|----------------------------|
E|-0--0-0-0--0-0--------------|-0--0-0-0--0-0--------------|
      PM........|               PM...........|

                                           Fim Base Fig 3
E|----------------------------|--------------------------|
B|----------------------------|--------------------------|
G|-4--------------5\4---4--4--|--------------------------|
D|-2--------------3\2---0--2--|------------------3----3--|
A|----------------------------|------------------3----3--|
E|----0-0-0--0-0--------------|-0--0-0-0--0-0-0--1----1--|
      PM........|               PM...........|

Ponte:

                  I'm in hell without you
E|----------------------------|----------------------------|
B|----------------------------|----------------------------|
G|----------------5\4---4--4--|----------------5\4---4--4--|
D|----------------3\2---0--2--|----------------3\2---0--2--|
A|----------------------------|----------------------------|
E|-0--0-0-0--0-0--------------|-0--0-0-0--0-0--------------|
   PM...........|               PM...........|


                  Cannot cope without you two
E|----------------------------|---------------------------|
B|----------------------------|---------------------------|
G|----------------5\4---4--4--|---------------------------|
D|----------------3\2---0--2--|---------------------------|
A|----------------------------|---------------------------|
E|-0--0-0-0--0-0--------------|-0--0-0-0--0-0-0--1--0--1--|
   PM...........|               PM......................|


                Shocked at the world that I see
E|----------------------------|----------------------------|
B|----------------------------|----------------------------|
G|----------------5\4---4--4--|----------------5\4------4--|
D|----------------3\2---0--2--|----------------3\2------0--|
A|-2--------------------------|----------------------------|
E|-0--0-0-0--0-0--------------|-0--0-0-0--0-0--------------|
      PM........|               PM...........|


                Innocent victim, please resque me
E|----------------------------|--------------------------|
B|----------------------------|--------------------------|
G|-4--------------5\4---4--4--|--------------------------|
D|-2--------------3\2---0--2--|------------------3----3--|
A|----------------------------|------------------3----3--|
E|----0-0-0--0-0--------------|-0--0-0-0--0-0-0--1----1--|
      PM........|               PM...........|

E|------------------|------------------|----------------|
B|------------------|------------------|----------------|
G|------------------|------------------|----------------|
D|-------------4----|-------------4----|----------------|
A|-2--------2--2----|-2--------2--2----|-2--------2-----|
E|-0----1-1-0-------|-0----1-1-0-------|-0----1-1-0-----|
        PM...|             PM...|             PM.|

                                                                DS al Coda
E|-------------------|------------------------------|---------------------|
B|-------------------|------------------------------|---------------------|
G|-------------------|------------------------------|---------------------|
D|-------------------|------------------------------|-------------4-------|
A|-----2----------2--|------------------------------|--2----------2----2--|
E|-1-1-0------1-1-0--|--0-0-0--0-0-0--0-0-0--0-0-0--|--0----0--0-------0--|
   PM.|       PM.|      PM........................|

Coda:

 you always knew
E|------------------|-------------------------|--------------------------|
B|------------------|-------------------------|--------------------------|
G|------------------|-------------------------|--------------------------|
D|--5---------------|----------------------5--|--------------------------|
A|--5---------------|--2-2-2--2--2-2-2--2--3--|--2--3--2--3--------------|
E|--3---------------|-------------------------|--------------0--1--0--1--|
                                                 PM....................|

E|------------------|-------------|------------------|--------------|--------|
B|------------------|-------------|------------------|--------------|--------|
G|------------------|-------------|------------------|--------------|--------|
D|--2-------3-------|--2-------5--|--2-------3-------|--2-----------|-2------|
A|--2-------3-------|--2-------5--|--2-------3-------|--2-----------|-2------|
E|--0--0-0--1--0-0--|--0--0-0--3--|--0--0-0--1--0-0--|--0--0-1-0-1--|-0------|
       PM.|    PM.|       PM.|          PM.|    PM.|       PM.....|
Composição de James Hetfield / Kirk Hammett / Lars Ulrich
Colaboração e revisão:
  • Rodrigo Carlos
15.888 exibições
    • ½ Tom
    • A
    • Bb
    • B
    • C
    • Db
    • D
    • Eb
    • E
    • F
    • F#
    • G
    • Ab
  • Adicionar à lista

    0 comentários

    Ver todos os comentários

    Conseguiu tocar?

    0 Tocaram 0 Ainda não

    Grave um vídeo tocando Dyers Eve e nos envie!

    00:00 / 00:00
    outros vídeos desta música
    repetir qualidade Automático
    Outros vídeos desta música
    00:00 / 00:00
    Automático

    Cifra Club Pro

    Aproveite o Cifra Club com benefícios exclusivos e sem anúncios
    Cifra Club Pro
    Aproveite o Cifra Club com benefícios exclusivos e sem anúncios
    OK