Cifra Club

Enter Sandman

Metallica

Tab de baixo: Principal
exibições 97.079
Introdução

Inicio base guitarra,baixo entra no 8º compasso

Parte 1 (tocar 11x)

G|--------------------------------------------|
D|--------------------------------------------|
A|--------------------------------------------|
E|-0-0-0-0-0-0-0-0----------------------------|

Parte 2

G|--------------------------------------------|
D|--------------------------------------------|
A|--------------------------------------------|
E|-0-0-0-6-5-5-5------------------------------|

Parte 3 (tocar 8x)

G|--------------------------------------------|
D|--------------------------------------------|
A|--------------------------------------------|
E|-0-0-0-0-0-0-0-0----------------------------|

Parte 4 

G|--------------------------------------------|
D|--------------------------------------------|
A|-----7-------------7-------------7----------|
E|-0-0---6-5-5-0-0-0---6-5-5-0-0-0---6-5-5----|

Parte 5

G|--------------------------------------------|
D|--------------------------------------------|
A|--------------------------------------------|
E|-0-3-0-2-0-2-3-2----------------------------|

Parte 6

G|--------------------------------------------|
D|--------------------------------------------|
A|-----7-------------7-------------7----------|
E|-0-0---6-5-5-0-0-0---6-5-5-0-0-0---6-5-5----|

Parte 7

G|--------------------------------------------|
D|--------------------------------------------|
A|--------------------------------------------|
E|-0-3-0-2-0-2-3-2----------------------------|

Primeira parte

Say your prayers, little one...

Parte 1

G|--------------------------------------------|
D|--------------------------------------------|
A|--------------------------------------------|
E|-0--0-0-0-0-0-0-0--0-0-0-0-0-0-0-0----------|

Parte 2

G|--------------------------------------------|
D|--------------------------------------------|
A|--------------------------------------------|
E|-0-0-0-0-0-0-0----3-0-2-0-2-3-2-------------|

Parte 3

G|--------------------------------------------|
D|--------------------------------------------|
A|--------------------------------------------|
E|-0--0-0-0-0-0-0-0--0-0-0-0-0-0-0-0----------|

Parte 4

G|--------------------------------------------|
D|--------------------------------------------|
A|--------------------------------------------|
E|-0-0-0-0-0-0-0----3-0-2-0-2-3-0-------------|

Parte 5

Sleep with one eye open...

G|--------------------------------------------|
D|--------------------------------------------|
A|---2---2---2-------3-2-2-3-4----------------|
E|-2---2---2---2-2-2--------------------------|

Refrão

Exit light,enter night... 

Parte 1

G|--------------------------------------------|
D|--------------------------------------------|
A|-------3-2-2-2--------3-2-2-2--------3-2-2-2|
E|-2-2-2--------2-2-2-2--------2-2-2-2--------|

Parte 2

G|--------------------------------------------|
D|--------------------------------------------|
A|-------5---7-5-------------3-2-2-2----------|
E|-0-5h7---7-----7-5--2-2-2----------0--------|

Parte 3

G|--------------------------------------------|
D|--------------------------------------------|
A|--------------------------------------------|
E|-0-2-0-3-0-5-3-0----------------------------|

Introdução 2 (tocar 2x)

Parte 1

G|--------------------------------------------|
D|--------------------------------------------|
A|-----7-------------7-------------7----------|
E|-0-0---6-5-5-0-0-0---6-5-5-0-0-0---6-5-5----|

Parte 2

G|--------------------------------------------|
D|--------------------------------------------|
A|--------------------------------------------|
E|-0-3-0-2-0-2-3-2----------------------------|

Segunda parte

Something's wrong, shut the light...

Parte 1

G|--------------------------------------------|
D|--------------------------------------------|
A|--------------------------------------------|
E|-0--0-0-0-0-0-0-0--0-0-0-0-0-0-0-0----------|

Parte 2

G|--------------------------------------------|
D|--------------------------------------------|
A|--------------------------------------------|
E|-0-0-0-0-0-0-0----3-0-2-0-2-3-2-------------|

Parte 3

G|--------------------------------------------|
D|--------------------------------------------|
A|--------------------------------------------|
E|-0--0-0-0-0-0-0-0--0-0-0-0-0-0-0-0----------|

Parte 4

G|--------------------------------------------|
D|--------------------------------------------|
A|--------------------------------------------|
E|-0-0-0-0-0-0-0----3-0-2-0-2-3-0-------------|

Parte 5

Sleep with one eye open...

G|--------------------------------------------|
D|--------------------------------------------|
A|---2---2---2-------3-2----------------------|
E|-2---2---2---2-2-2-----0-1-1----------------|

Refrão 2

Exit light,enter night... 

Parte 1

G|--------------------------------------------|
D|--------------------------------------------|
A|-------3-2-2-2--------3-2-2-2--------3-2-2-2|
E|-2-2-2--------2-2-2-2--------2-2-2-2--------|

Parte 2

G|--------------------------------------------|
D|--------------------------------------------|
A|-------5---7-5-------------3-2-2-2----------|
E|-0-5h7---7-----7-5--2-2-2----------0--------|

Parte 3

G|--------------------------------------------|
D|--------------------------------------------|
A|--------------------------------------------|
E|-0-2-0-3-0-5-3-0----------------------------|
 
Solo guitarra 

Parte 1

G|--------------------------------------------|
D|--------------------------------------------|
A|--------------------------------------------|
E|-0--0-0-0-0-0-0-----------------------------|

Parte 2

G|--------------------------------------------|
D|--------------------------------------------|
A|-----7-------------7-------------7----------|
E|-0-0---6-5-5-0-0-0---6-5-5-0-0-0---6-5-5----|

Parte 3

G|--------------------------------------------|
D|--------------------------------------------|
A|--------------------------------------------|
E|-0-3-0-2-0-2-3-2----------------------------|

Parte 4

G|--------------------------------------------|
D|--------------------------------------------|
A|-----7-------------7-------------7----------|
E|-0-0---6-5-5-0-0-0---6-5-5-0-0-0---6-5-5----|

Parte 5

G|--------------------------------------------|
D|--------------------------------------------|
A|--------------------------------------------|
E|-0-3-0-2-0-2-3-0----------------------------|

Parte 6

G|--------------------------------------------|
D|--------------------------------------------|
A|---2---2---2-------3-2-2-3-4----------------|
E|-2---2---2---2-2-2--------------------------|

Parte 7

G|--------------------------------------------|
D|--------------------------------------------|
A|-------3-2-2-2--------3-2-2-2--------3-2-2-2|
E|-2-2-2--------2-2-2-2--------2-2-2-2--------|

Parte 8

G|--------------------------------------------|
D|--------------------------------------------|
A|-------5---7-5-------------3-2-2-2----------|
E|-0-5h7---7-----7-5--2-2-2----------0--------|

Parte 9

G|--------------------------------------------|
D|--------------------------------------------|
A|--------------------------------------------|
E|-0-2-0-3-0-5-3-0----------------------------|

Terceira parte

Now I lay me down to sleep 

Parte 1 (tocar parte 1 e 2 duas vezes)

G|--------------------------------------------|
D|--------------------------------------------|
A|--------------------------------------------|
E|-0-0-0-0-0-0-0-0--0-0-0-0-0-0-0-0-----------|

Parte 2

G|--------------------------------------------|
D|--------------------------------------------|
A|--------------------------------------------|
E|-0-0-0-0-0-0-0-0--0-0-0-0-0-0-0-3-----------|

Parte 3

G|--------------------------------------------|
D|--------------------------------------------|
A|--------------------------------------------|
E|-0-0-0-0-0-0-0-0--0-0-0-0-0-0-0-0-----------|

Parte 4

G|--------------------------------------------|
D|--------------------------------------------|
A|--------------------------------------------|
E|-0-0-0-0-0-0-0-0--0-0-0-0-0-0-0-------------|

Parte 5 (tocar 3x)

Hush,little baby,don't say a word...

G|--------------------------------------------|
D|--------------------------------------------|
A|--------------------------------------------|
E|-2-2-2-2-2-2-2-2--2-2-2-2-2-2-2-2-----------|

Parte 6

G|--------------------------------------------|
D|--------------------------------------------|
A|----------------------------2-3-4-----------|
E|-2-2-2-2-2-2-2-2--2-2-2-2-2-----------------|

Refrão 3

Exit light,enter night... 

Parte 1

G|--------------------------------------------|
D|--------------------------------------------|
A|-------3-2-2-2--------3-2-2-2--------3-2-2-2|
E|-2-2-2--------2-2-2-2--------2-2-2-2--------|

Parte 2

G|--------------------------------------------|
D|--------------------------------------------|
A|-------5---7-5-------------3-2-2-2----------|
E|-0-5h7---7-----7-5--2-2-2----------0--------|

Parte 3

G|--------------------------------------------|
D|--------------------------------------------|
A|--------------------------------------------|
E|-0-0-0-0-0-0-0-0----------------------------|

Parte 4

G|--------------------------------------------|
D|--------------------------------------------|
A|-------3-2-2-2--------3-2-2-2--------3-2-2-2|
E|-2-2-2--------2-2-2-2--------2-2-2-2--------|

Parte 5

G|--------------------------------------------|
D|--------------------------------------------|
A|-------5---7-5-------------3-2-2-2----------|
E|-0-5h7---7-----7-5--2-2-2----------0--------|

Parte 6

G|--------------------------------------------|
D|--------------------------------------------|
A|--------------------------------------------|
E|-0-2-0-3-0-5-3-0--0-------------------------|

Quarta parte final

Parte 1

G|--------------------------------------------|
D|--------------------------------------------|
A|---7-------------7-------------7------------|
E|-0---6-5-5-0-0-0---6-5-5-0-0-0---6-5-5-0----|

Parte 2

G|--------------------------------------------|
D|--------------------------------------------|
A|-----7-------------7------------------------|
E|-0-0---6-5-5-0-0-0---6-5-5------------------|

Parte 3

G|--------------------------------------------|
D|--------------------------------------------|
A|--------------------------------------------|
E|-0-3-0-2-0-2-3-2----------------------------|

Parte 4 (tocar 24x)

G|--------------------------------------------|
D|--------------------------------------------|
A|--------------------------------------------|
E|-0-0-0-0-0-0-0-0----------------------------|
Composição: James Hetfield / Kirk Hammett / Lars UlrichColaboração e revisão:
  • Reginaldo Costa
  • Hellektra

0 comentários

    mostrar mais comentários
    00:00 / 00:00
    outros vídeos desta música
    repetirqualidadeautomática
    Outro vídeos desta música
      00:00 / 00:00
      automática
      Capítulos
      • Tocando a música
      • Dicas iniciais
      • Tocando Introdução
      • Ensinando Introdução
      • Tocando Primeira Parte
      • Ensinando Primeira Parte
      • Tocando Refrão
      • Tocando Refrão
      • Ensinando Refrão
      • Tocando Introdução 2
      • Ensinando Introdução 2
      • Tocando Segunda Parte
      • Ensinando Segunda Parte
      • Tocando Refrão 2 - Solo
      • Ensinando trecho do Solo
      • Tocando Terceira Parte
      • Ensinando Terceira Parte
      • Tocando Refrão 3
      • Ensinando Refrão 3
      • Tocando Final
      • Ensinando Final
      • Encerramento
      • Equipamentos / Erros de Gravação
      OK