Cifra Club

Aprenda

Fade To Black

Metallica

Cifra: Solo (violão e guitarra)
tom: G
[Solo]

(Parte 1)

E|----------------------------------------------------|
B|----------------------------------------------------|
G|-------7-9b11--9b11--9b11--9b11r9p7-9~--------------|
D|-/9--9----------------------------------------------|
A|----------------------------------------------------|
E|----------------------------------------------------|

(Parte 2)

E|----------------------------------------------------|
B|7h8--7-----8--7-----7h8--7-----10-8-10-10/12-10-8---|
G|--------7--------7----------7-----------------------|
D|----------------------------------------------------|
A|----------------------------------------------------|
E|----------------------------------------------------|

E|----------------------------------------------------|
B|-8h10-8-7-7h8-7----7--------------------------------|
G|----------------9----9-7----------------------------|
D|--------------------------7~-9-9~-------------------|
A|----------------------------------------------------|
E|----------------------------------------------------|

(Parte 3)

E|---------------------------------7------------------|
B|-------------------------------7---10p7-------------|
G|----7-9-9b11r9p7-9-7~---7-9b11----------------------|
D|-/9-------------------9-----------------------------|
A|----------------------------------------------------|
E|----------------------------------------------------|

E|------7-----------7-----------7---------------------|
B|--------10p7--------10p7--------10p7----------------|
G|-9b11--------9b11--------9b11--------9b11-----------|
D|----------------------------------------------------|
A|----------------------------------------------------|
E|----------------------------------------------------|

E|--7----------------7--------------7-------------7---|
B|-----10p7-------------10p7----------10p7------------|
G|-----------9b11-------------9b11----------9b11------|
D|----------------------------------------------------|
A|----------------------------------------------------|
E|----------------------------------------------------|

E|-10p7----7-10p7-10p7------7-10p7--10p7----7---------|
B|------10--------------10---------------10-----------|
G|----------------------------------------------------|
D|----------------------------------------------------|
A|----------------------------------------------------|
E|----------------------------------------------------|

E|-10p7----7-10p7-10p7------7-10p7--10p7----7---------|
B|------10--------------10---------------10-----------|
G|----------------------------------------------------|
D|----------------------------------------------------|
A|----------------------------------------------------|
E|----------------------------------------------------|

E|10b12--10b12r-10-8-7-8-7----7-----------------------|
B|-------------------------10---10-8-10-8-7-----------|
G|----------------------------------------------------|
D|----------------------------------------------------|
A|----------------------------------------------------|
E|----------------------------------------------------|

E|----------------------------------------------------|
B|-8-7---7--------------------------------------------|
G|-----9---9-7----------------------------------------|
D|-------------7~-9-9~--------------------------------|
A|----------------------------------------------------|
E|----------------------------------------------------|

(Parte 4)

E|----------------------------------------------------|
B|-8p7---7-8-10-10/12-10-8-7-------------8p7----------|
G|-----9---------------------9-7----------------------|
D|-------------------------------7~-9-9~--------------|
A|----------------------------------------------------|
E|----------------------------------------------------|

E|----------7-8-7~------------------------------------|
B|---7-8-10-------------------------------------------|
G|-9--------------------------------------------------|
D|----------------------------------------------------|
A|----------------------------------------------------|
E|----------------------------------------------------|

(Parte 5)

E|-7-8-10-8-7-8-7----7--------------------------------|
B|----------------10---10-8-10-8-7-8-7---7------------|
G|-------------------------------------9--------------|
D|----------------------------------------------------|
A|----------------------------------------------------|
E|----------------------------------------------------|

E|------------------------------------7---------------|
B|-----------------------------7-8-10---10-8----------|
G|-9-7-9-7-6-7-6--------6-7-9-------------------------|
D|---------------9-7-9--------------------------------|
A|----------------------------------------------------|
E|----------------------------------------------------|

E|-----------------7----------------------------------|
B|-7-8p7----7-8-10---10-8-7-8p7-----------------------|
G|--------9-------------------------------------------|
D|----------------------------------------------------|
A|----------------------------------------------------|
E|----------------------------------------------------|

(Parte 6)

E|----------------------------------------------------|
B|----------------------------------------------------|
G|-9b11--9b11--9b11--9b11--b11-b11-b11...-------------|
D|----------------------------------------------------|
A|----------------------------------------------------|
E|----------------------------------------------------|

           P.M   . .     . .     . .   . .
E|----------------------------------------------------|
B|-------------7-----7-7-----7-7-----7-----7----------|
G|-b11r9p7-----7-----7-7-----7-7-----7-----7----------|
D|---------9-9---9-9-----9-9-----9-9---9-9------------|
A|----------------------------------------------------|
E|----------------------------------------------------|

E|----------------------------------------------------|
B|-10b12--10b12--10b12~-------------------------------|
G|----------------------------------------------------|
D|----------------------------------------------------|
A|----------------------------------------------------|
E|----------------------------------------------------|

E|----------------------------------------------------|
B|-7h10p7---8-7h8p7-----------------------------------|
G|--------9---------9-7---7---7-----------------------|
D|----------------------9---9-------------------------|
A|----------------------------------------------------|
E|----------------------------------------------------|

E|----------------------------------------------------|
B|----------------------------------------------------|
G|--7-9-7---7-----------------------------------------|
D|--------9---9-7-9-7----7----------------------------|
A|---------------------9---9-7-9-7----7---------------|
E|---------------------------------10---10-7-10\------|

(Parte 7)

E|----12-15p12----12-15p12-14p12----12----------------|
B|-12----------12----------------12-------------------|
G|----------------------------------------------------|
D|----------------------------------------------------|
A|----------------------------------------------------|
E|----------------------------------------------------|

E|-15p12-14p12----12-15p12----12--15p12--14p12--------|
B|-------------12----------12-------------------------|
G|----------------------------------------------------|
D|----------------------------------------------------|
A|----------------------------------------------------|
E|----------------------------------------------------|

E|----12-15p12-14p12----12----------------------------|
B|-12----------------12-------------------------------|
G|----------------------------------------------------|
D|----------------------------------------------------|
A|----------------------------------------------------|
E|----------------------------------------------------|

(Parte 8)

E|-17p14----14-17p14----14-17p14----14-17p14----------|
B|-------15----------15----------15-------------------|
G|----------------------------------------------------|
D|----------------------------------------------------|
A|----------------------------------------------------|
E|----------------------------------------------------|

E|-----14-17p14----14-17p14----14-17p14----14---------|
B|--15----------15----------15----------15------------|
G|----------------------------------------------------|
D|----------------------------------------------------|
A|----------------------------------------------------|
E|----------------------------------------------------|

E|-17p14----14--19p15----15-19p15-17p15----15---------|
B|-------15-----------17----------------17------------|
G|----------------------------------------------------|
D|----------------------------------------------------|
A|----------------------------------------------------|
E|----------------------------------------------------|

E|--19p15-17p15----15-19p15-----15-19p15--17p15-------|
B|--------------17-----------17-----------------------|
G|----------------------------------------------------|
D|----------------------------------------------------|
A|----------------------------------------------------|
E|----------------------------------------------------|

E|----15-19p15-17p15----15-21p17-----17-21p17---------|
B|-17----------------17----------19-------------------|
G|----------------------------------------------------|
D|----------------------------------------------------|
A|----------------------------------------------------|
E|----------------------------------------------------|

E|----17-21p17----17-21p17----17-21p17----17----------|
B|-19----------19----------19----------19-------------|
G|----------------------------------------------------|
D|----------------------------------------------------|
A|----------------------------------------------------|
E|----------------------------------------------------|

E|-21p17----17-21b17----17-21p17----17----------------|
B|-------19----------19----------19-------------------|
G|----------------------------------------------------|
D|----------------------------------------------------|
A|----------------------------------------------------|
E|----------------------------------------------------|

(Parte 9)

E|-22b24------22b24-----22b24-------22b24-------------|
B|----------------------------------------------------|
G|----------------------------------------------------|
D|----------------------------------------------------|
A|----------------------------------------------------|
E|----------------------------------------------------|

E|-22b24-22b24-22b24-22b24----------------------------|
B|----------------------------------------------------|
G|----------------------------------------------------|
D|----------------------------------------------------|
A|----------------------------------------------------|
E|----------------------------------------------------|

E|-19-22-20-19-20-19----19----------------------------|
B|-------------------22----22-20-22-20-19-20----------|
G|----------------------------------------------------|
D|----------------------------------------------------|
A|----------------------------------------------------|
E|----------------------------------------------------|

E|----------------------------------------------------|
B|-19----19-------------------------------------------|
G|----21-----21-19-21-19-18-19-18----18---------------|
D|--------------------------------21----21-19---------|
A|----------------------------------------------------|
E|----------------------------------------------------|

E|----------------------------------------------------|
B|----------------------------------------------------|
G|----------------------------------------------------|
D|-21-19-17-19-17----17-------------------------------|
A|----------------21----21-19-21-19-17-19-17----------|
E|----------------------------------------------------|

E|----------------------------------------------------|
B|----------------------------------------------------|
G|----------------------------------------------------|
D|----------------------------------------------------|
A|-16-17~~--16-17-19b21--b21--b21...~-----------------|
E|----------------------------------------------------|

(Parte 10)

E|-------7---------7---------7---------7--------------|
B|-10b12---7-10b12---7-10b12---7-10b12---7------------|
G|----------------------------------------------------|
D|----------------------------------------------------|
A|----------------------------------------------------|
E|----------------------------------------------------|

E|----------------------------------------------------|
B|--10b12---------------------------------------------|
G|----------------------------------------------------|
D|----------------------------------------------------|
A|----------------------------------------------------|
E|----------------------------------------------------|
Composição de Cliff Burton / James Hetfield / Kirk Hammett / Lars Ulrich
Colaboração e revisão:
  • Getúlio Vasconcelos
  • Eliakin sá
83.879 exibições
    • ½ Tom
    • A
    • Bb
    • B
    • C
    • Db
    • D
    • Eb
    • E
    • F
    • F#
    • G
    • Ab
  • Adicionar à lista

    0 comentários

    Ver todos os comentários

    Conseguiu tocar?

    3 Tocaram 0 Ainda não

    Grave um vídeo tocando Fade To Black e nos envie!

    00:00 / 00:00
    outros vídeos desta música
    repetir qualidade Automático
    Outros vídeos desta música
    00:00 / 00:00
    Automático
    Capítulos
    • Tocando Solo
    • Dicas iniciais / Equipamentos
    • Configuração do Efeito
    • Solo - Parte 1 de 10 (100 bpm)
    • Solo - Parte 2 de 10 (100 bpm)
    • Solo - Parte 3 de 10 (100 bpm)
    • Solo - Parte 4 de 10 (100 bpm)
    • Solo - Parte 5 de 10 (100 bpm)
    • Solo - Parte 6 de 10 (100 bpm)
    • Solo - Parte 7 de 10 (100 bpm)
    • Solo - Parte 8 de 10 (100 bpm)
    • Solo - Parte 9 de 10 (100 bpm)
    • Solo - Parte 10 de 10 (100 bpm)
    • Solo - Parte 1 de 10 (120 bpm)
    • Solo - Parte 2 de 10 (120 bpm)
    • Solo - Parte 3 de 10 (120 bpm)
    • Solo - Parte 4 de 10 (120 bpm)
    • Solo - Parte 5 de 10 (120 bpm)
    • Solo - Parte 6 de 10 (120 bpm)
    • Solo - Parte 7 de 10 (120 bpm)
    • Solo - Parte 8 de 10 (120 bpm)
    • Solo - Parte 9 de 10 (120 bpm)
    • Solo - Parte 10 de 10 (120 bpm)
    • Encerramento
    • Ficha técnica

    Cifra Club Pro

    Aproveite o Cifra Club com benefícios exclusivos e sem anúncios
    Cifra Club Pro
    Aproveite o Cifra Club com benefícios exclusivos e sem anúncios
    OK