Cifra Club

Aprenda

Fixxxer

Metallica

Tab de baixo: Principal
tune all guitars down 1/2 step 
   1/2 
1)  ^ 
eb---- 
Bb--10 
Gb--9- 
Db---- 
Ab---- 
Eb---- 
 
This is that noise that happens all through the song.  Kirk uses the 
trem to bend it up a half step, but if you don't have one, just slide 
up one fret. 
 
 
2) 
Gb-------------------       --------------------       ---------------- 
Db-----7-5-----5h7-5- twice ------5---x-x--x-x-x twice ---------------- 
Ab--7~~-----7~~------ then  -5h7----7-x-x--x-x-x then  -5h7-3h5-2h3-0h2 
Eb-------------------       --------------------       ---------------- 
with wah                                               no wah 
 
 
3) 
Db-------------------5-------------4-5-7 
Ab------7-5-7---------------7-5-7------5 
Eb--0-0--------7-5-7----0-0------------- 
 
 
4) 
Gb-------------------------------------------- 
Db--4-5-4-2-4--4-5-4-2-4--4-5-4-2-4--4-5-4-2-2 
Ab----------2----------2----------2----------0 
Eb-------------------------------------------- 
verse 
"Don't suppose you are stuck with me." 
 
 
5) 
Gb-------------------------------------------- 
Db-------------------------------------------- 
Ab--7-8-7-5-7--7-8-7-5-7--7-8-7-5-7--7-8-7-5-5 
Eb----------5----------5----------5----------3 
verse 
"Sooner or later..." 
 
 
6a) distorted 
Db--------------------2---------5-------4--- 
Ab--2---2-----5-------0---------3-------2--2 
Eb--0---0-----3----------------------------0 
 
6b) clean 
eb----------------------------------------------- 
Bb----------------------------------------------- 
Gb--------7---------7-------7------5--------4---- 
Db------7---------7-------7------5---5----4---4-- 
Ab--------------5-------5------3--------2-------- 
Eb--0-7-------3-------5-------------------------0 
Chorus 
"Can you hear what father's done" 
 
 
7) 
Gb-------7---------7----------------------------- 
Db--7-9--5-9--7-9--5-9-------5------------------- 
Ab--5-7----7--5-7----7--5-7----7--5h7-3h5-2h3-0h2 
Eb----------------------------------------------- 
pre solo 
 
 
8) 
Gb------------------2------------1-2-- 
Db------2-4-2--------------2-4-2-----4 
Ab------------2-4-2------------------4 
Eb--2-2----------------2-2-----------2 
begining of solo then back to 2) 
 
 
9) 
Db-------2---------2----- 
Ab--2-4--0-4--2-4--0-4--2 
Eb--0-2----2--0-2----2--0 
end of solo
Composição de James Hetfield / Kirk Hammett / Lars Ulrich
Colaboração e revisão:
  • Hellektra
3.416 exibições

0 comentários

Ver todos os comentários

Conseguiu tocar?

0 Tocaram 0 Ainda não

Grave um vídeo tocando Fixxxer e nos envie!

00:00 / 00:00
outros vídeos desta música
repetir qualidade Automático
Outros vídeos desta música
00:00 / 00:00
Automático

Cifra Club Pro

Aproveite o Cifra Club com benefícios exclusivos e sem anúncios
Cifra Club Pro
Aproveite o Cifra Club com benefícios exclusivos e sem anúncios
OK