Cifra Club

Aprenda

For Whom The Bell Tolls

Metallica

Cifra: Versão 2 (violão e guitarra)
tom: F
/=Slide up

PM.=Palm Mute

Opening Rift:

Guitar I&II
E|-------------------------------------------------------------------------------------------|       ___   
B|-------------------------------------------------------------------------------------------|          \ 
G|-------------------------------------------------------------------------------------------|           \
D|4-4--4-4--2-(2)----------------------------4-4--4-4--2-(2)---------------------------------|           ¦
A|4-4--4-4--2-(2)----------------------------4-4--4-4--2-(2)---------------------------------|           ¦ 
E|2-2--2-2--0-(0)----------------------------2-2--2-2--0-(0)---------------------------------|                                                                                                          ¦                                                                                                                                                                                                     ¦X4
                                                                                                        
  This Is Really Bass Guitar But Heres How To Do It On Guitar                                            ¦
E|-------------------------------------------------------------------------------------------|           ¦
B|-------------------------------------------------------------------------------------------|           ¦
G|-------------------------------------------------------------------------------------------|           /
D|-------------/12-11-10-9-(9)/12------12-----------------/12-11-10-9-(9)/12------12---------|       ___/
A|--------------------------------10-9---------------------------------------10-9------------|          
E|----------------------------------------10-9-(9)----------------------------------10-9-(9)-|

E|-------------|
B|-------------|
G|-------------| X4          
D|-4--4--2-(2)-|
A:-4--4--2-(2)-|
E|-2--2--0-(0)-|

Then:

E|------|
B|------|
G|------|
D|-4--4-|
A:-4--4-|
E|-2--2-|

E|------------------------------------|
B|------------------------------------|
G|------------------------------------|
D|-2-5-4-3--2-5-4-3--2-5-4-3--2-5-4-5-|   X3
A:-2-5-4-3--2-5-4-3--2-5-4-3--2-5-4-7-|
E|-0-3-2-1--0-3-2-1--0-3-2-1--0-3-2-7-|
 PM. . . .  . . . .  . . . .  . . . .

E|---------------|
B|---------------|
G|---------------|
D|-2-5-4-3-2-(2)-|   
A:-2-5-4-3-2-(2)-|
E|-0-3-2-1-0-(0)-|
 PM. . . .  

Guitar I  (James)
E|-----------------------------------------------------------------|
B|-----------------------------------------------------------------|
G|-----------------------------------------------------------------|
D|-2-(2)-----------------------------------------------------------|
A|-2-(2)-----------------------------------------------------------|
E|-0-(0)-----------------------------------------------------------|

Guitar II  (Kirk)                                                  |
E|-----------------------------------------------------------------|
B|-----------------------------------------------------------------|
G|-12-9-11----9-11-12-9-11----9-11-12-9-11----9-11-12-9-11----9-11-|
D|---------12--------------12--------------12--------------12------|  
A|-----------------------------------------------------------------|
E|-----------------------------------------------------------------|

Guitar I  (James)
E|-----------------------------------------------------------------|
B|-----------------------------------------------------------------|
G|-----------------------------------------------------------------|
D|-5-(5)---------------------------5-------------------------------|
A|-5-(5)---------------------------5-------------------------------|
E|-3-(3)---------------------------3-------------------------------|

Guitar II  (Kirk)                                                  |
E|-----------------------------------------------------------------|
B|-----------------------------------------------------------------|
G|-12-9-11----9-11-12-9-11----9-11-12-9-11----9-11-12-9-11----9-11-|
D|---------12--------------12--------------12--------------12------|  
A|-----------------------------------------------------------------|
E|-----------------------------------------------------------------|

Guitar I  (James)
E|-----------------------------------------------------------------|
B|-----------------------------------------------------------------|
G|-----------------------------------------------------------------|
D|-2-(2)-----------------------------------------------------------|
A|-2-(2)-----------------------------------------------------------|
E|-0-(0)-----------------------------------------------------------|

Guitar II  (Kirk)                                                  |
E|-----------------------------------------------------------------|
B|-----------------------------------------------------------------|
G|-12-9-11----9-11-12-9-11----9-11-12-9-11----9-11-12-9-11----9-11-|
D|---------12--------------12--------------12--------------12------|  
A|-----------------------------------------------------------------|
E|-----------------------------------------------------------------|

Guitar I  (James)
E|-----------------------------------------------------------------|
B|-----------------------------------------------------------------|
G|-----------------------------------------------------------------|
D|-5-(5)---------------------------10-(10)------------7-(7)--------|
A|-5-(5)---------------------------10-(10)------------7-(7)--------|
E|-3-(3)---------------------------8--(8)-------------5-(5)--------|

Guitar II  (Kirk)                                                  |
E|-----------------------------------------------------------------|
B|-----------------------------------------------------------------|
G|-12-9-11----9-11-12-9-11----9-11-12-9-11----9-11-12-9-11----9-11-|
D|---------12--------------12--------------12--------------12------|  
A|-----------------------------------------------------------------|
E|-----------------------------------------------------------------|

Guitar I  (James)
E|-----------------------------------------------------------------|
B|-----------------------------------------------------------------|
G|-----------------------------------------------------------------|
D|-2-(2)-----------------------------------------------------------|
A|-2-(2)-----------------------------------------------------------|
E|-0-(0)-----------------------------------------------------------|

Guitar II  (Kirk)                                                  |
E|-----------------------------------------------------------------|
B|-----------------------------------------------------------------|
G|-12-9-11----9-11-12-9-11----9-11-12-9-11----9-11-12-9-11----9-11-|
D|---------12--------------12--------------12--------------12------|  
A|-----------------------------------------------------------------|
E|-----------------------------------------------------------------|
Guitar I  (James)
E|-----------------------------------------------------------------|
B|-----------------------------------------------------------------|
G|-----------------------------------------------------------------|
D|-5-(5)---------------------------5-------------------------------|
A|-5-(5)---------------------------5-------------------------------|
E|-3-(3)---------------------------3-------------------------------|

Guitar II  (Kirk)                                                  |
E|-----------------------------------------------------------------|
B|-----------------------------------------------------------------|
G|-12-9-11----9-11-12-9-11----9-11-12-9-11----9-11-12-9-11----9-11-|
D|---------12--------------12--------------12--------------12------|  
A|-----------------------------------------------------------------|
E|-----------------------------------------------------------------|

Guitar I  (James)
E|-----------------------------------------------------------------|
B|-----------------------------------------------------------------|
G|-----------------------------------------------------------------|
D|-2-(2)-----------------------------------------------------------|
A|-2-(2)-----------------------------------------------------------|
E|-0-(0)-----------------------------------------------------------|

Guitar II  (Kirk)                                                  |
E|-----------------------------------------------------------------|
B|-----------------------------------------------------------------|
G|-12-9-11----9-11-12-9-11----9-11-12-9-11----9-11-12-9-11----9-11-|
D|---------12--------------12--------------12--------------12------|  
A|-----------------------------------------------------------------|
E|-----------------------------------------------------------------|

Guitar I  (James)
E|-----------------------------------------------------------------|
B|-----------------------------------------------------------------|
G|-----------------------------------------------------------------|
D|-5-(5)---------------------------10-(10)------------7-(7)--------|
A|-5-(5)---------------------------10-(10)------------7-(7)--------|
E|-3-(3)---------------------------8--(8)-------------5-(5)--------|

Guitar II  (Kirk)                                                  |
E|-----------------------------------------------------------------|
B|-----------------------------------------------------------------|
G|-12-9-11----9-11-12-9-11----9-11-12-9-11----9-11-12-9-11----9-11-|
D|---------12--------------12--------------12--------------12------|  
A|-----------------------------------------------------------------|
E|-----------------------------------------------------------------|

Guitar I&II
E|--------------------------------------------|
B|--------------------------------------------|
G|----------------------------------------3---|
D|-2-2-2-5-(5)--2-2-2-7-(7)--2-2-2-5-(5)--3-4-|
A:-2-2-2-5-(5)--2-2-2-7-(7)--2-2-2-5-(5)--1-4-|
E|-0-0-0-3-(3)--0-0-0-5-(5)--0-0-0-3-(3)----2-|
PM . . .        . . .        . . .

E|----------------------------------------------|
B|----------------------------------------------|
G|----------------------------------------3-----|
D|-2-2-2-5-(5)--2-2-2-7-(7)--2-2-2-5-(5)--3-4-3-|
A:-2-2-2-5-(5)--2-2-2-7-(7)--2-2-2-5-(5)--1-4-3-|
E|-0-0-0-3-(3)--0-0-0-5-(5)--0-0-0-3-(3)----2-1-|
PM . . .        . . .        . . . 

E|--------------------------------------------|
B|--------------------------------------------|
G|----------------------------------------3---|
D|-2-2-2-5-(5)--2-2-2-7-(7)--2-2-2-5-(5)--3-4-|
A:-2-2-2-5-(5)--2-2-2-7-(7)--2-2-2-5-(5)--1-4-|
E|-0-0-0-3-(3)--0-0-0-5-(5)--0-0-0-3-(3)----2-|
PM . . .        . . .        . . .                      

E|----------------------------------------------|
B|----------------------------------------------|
G|----------------------------------------3-----|
D|-2-2-2-5-(5)--2-2-2-7-(7)--2-2-2-5-(5)--3-4-3-|
A:-2-2-2-5-(5)--2-2-2-7-(7)--2-2-2-5-(5)--1-4-3-|
E|-0-0-0-3-(3)--0-0-0-5-(5)--0-0-0-3-(3)----2-1-|
PM . . .        . . .        . . .

Verse:
E|-----------------------------------------------------------------|
B|-----------------------------------------------------------------|
G|-----------------------------------------------------------------|
D|-2-(2)-----------------------------------------------------------|
A|-2-(2)-----------------------------------------------------------|
E|-0-(0)-----------------------------------------------------------|

E|-----------------------------------------------------------------|
B|-----------------------------------------------------------------|
G|-----------------------------------------------------------------|
D|-5-(5)---------------------------5-------------------------------|
A|-5-(5)---------------------------5-------------------------------|
E|-3-(3)---------------------------3-------------------------------|

E|-----------------------------------------------------------------|
B|-----------------------------------------------------------------|
G|-----------------------------------------------------------------|
D|-2-(2)-----------------------------------------------------------|
A|-2-(2)-----------------------------------------------------------|
E|-0-(0)-----------------------------------------------------------|

E|-----------------------------------------------------------------|
B|-----------------------------------------------------------------|
G|-----------------------------------------------------------------|
D|-5-(5)---------------------------10-(10)------------7-(7)--------|
A|-5-(5)---------------------------10-(10)------------7-(7)--------|
E|-3-(3)---------------------------8--(8)-------------5-(5)--------|
     
E|-----------------------------------------------------------------|
B|-----------------------------------------------------------------|
G|-----------------------------------------------------------------|
D|-2-(2)-----------------------------------------------------------|
A|-2-(2)-----------------------------------------------------------|
E|-0-(0)-----------------------------------------------------------|

E|-----------------------------------------------------------------|
B|-----------------------------------------------------------------|
G|-----------------------------------------------------------------|
D|-5-(5)---------------------------5-------------------------------|
A|-5-(5)---------------------------5-------------------------------|
E|-3-(3)---------------------------3-------------------------------|

E|-----------------------------------------------------------------|
B|-----------------------------------------------------------------|
G|-----------------------------------------------------------------|
D|-2-(2)-----------------------------------------------------------|
A|-2-(2)-----------------------------------------------------------|
E|-0-(0)-----------------------------------------------------------|

E|-----------------------------------------------------------------|
B|-----------------------------------------------------------------|
G|-----------------------------------------------------------------|
D|-5-(5)---------------------------10-(10)------------7-(7)--------|
A|-5-(5)---------------------------10-(10)------------7-(7)--------|
E|-3-(3)---------------------------8--(8)-------------5-(5)--------|

Chorus:
E|--------------------------------------------|
B|--------------------------------------------|
G|----------------------------------------3---|
D|-2-2-2-5-(5)--2-2-2-7-(7)--2-2-2-5-(5)--3-4-|
A:-2-2-2-5-(5)--2-2-2-7-(7)--2-2-2-5-(5)--1-4-|
E|-0-0-0-3-(3)--0-0-0-5-(5)--0-0-0-3-(3)----2-|
PM . . .        . . .        . . .

E|----------------------------------------------|
B|----------------------------------------------|
G|----------------------------------------3-----|
D|-2-2-2-5-(5)--2-2-2-7-(7)--2-2-2-5-(5)--3-4-3-|
A:-2-2-2-5-(5)--2-2-2-7-(7)--2-2-2-5-(5)--1-4-3-|
E|-0-0-0-3-(3)--0-0-0-5-(5)--0-0-0-3-(3)----2-1-|
PM . . .        . . .        . . . 

E|--------------------------------------------|
B|--------------------------------------------|
G|----------------------------------------3---|
D|-2-2-2-5-(5)--2-2-2-7-(7)--2-2-2-5-(5)--3-4-|
A:-2-2-2-5-(5)--2-2-2-7-(7)--2-2-2-5-(5)--1-4-|
E|-0-0-0-3-(3)--0-0-0-5-(5)--0-0-0-3-(3)----2-|
PM . . .        . . .        . . .      

E|----------------------------------------------|
B|----------------------------------------------|
G|----------------------------------------3-----|
D|-2-2-2-5-(5)--2-2-2-7-(7)--2-2-2-5-(5)--3-4-3-|
A:-2-2-2-5-(5)--2-2-2-7-(7)--2-2-2-5-(5)--1-4-3-|
E|-0-0-0-3-(3)--0-0-0-5-(5)--0-0-0-3-(3)----2-1-|
PM . . .        . . .        . . .

Solo:
Guitar I  (James)
E|---------------------------------|
B|---------------------------------|
G|---------------------------------|
D|-2-(2)-------------------------2-|
A|-2-(2)-------------------------2-|
E|-0-(0)-------------------------0-|

Guitar II  (Kirk)                  |
E|---------------------------------|
B|---------------------------------|
G|-12-9-11----9--------------------|
D|---------12---11-12-9-11----9----|
A|-------------------------12---10-|
E|---------------------------------|

Guitar I  (James)
E|---------------------------------|
B|---------------------------------|
G|---------------------------------|
D|-2-(2)-------------------------5-|
A|-2-(2)-------------------------3-|
E|-0-(0)-------------------------3-|

Guitar II  (Kirk)                  |
E|---------------------------------|
B|---------------------------------|
G|-12-9-11----9--------------------|
D|---------12---11-12-9-11----9----|
A|-------------------------12---10-|
E|---------------------------------|

Guitar I  (James)
E|---------------------------------|
B|---------------------------------|
G|---------------------------------|
D|-5-5-5--5--5-5-5-----------------|
A|-5-5-5--5--5-5-5-----------------|
E|-3-3-3--3--3-3-3-----------------|

Guitar II  (Kirk)                  |
E|---------------------------------|
B|---------------------------------|
G|---------------------------------|
D|-5-5-5--5--5-5-5-----------------|
A|-5-5-5--5--5-5-5-----------------|
E|-3-3-3--3--3-3-3-----------------|

Guitar I  (James)
E|---------------------------------|
B|--------------12------10-------12|
G|-12-9-11----9----12-9----11-12---|
D|---------12----------------------|
A|---------------------------------|
E|---------------------------------|

Guitar II  (Kirk)                  |
E|---------------------------------|
B|---------------------------------|
G|-12-9-11----9--------------------|
D|---------12---11-12-9-11----9----|
A|-------------------------12---10-|
E|---------------------------------|

Guitar I  (James)
E|-----------------------------------|
B|--------------12------10-------12--|
G|-12-9-11----9----12-9----11-12---12|
D|---------12------------------------|
A|-----------------------------------|
E|-----------------------------------|

Guitar II  (Kirk)                    |
E|-----------------------------------|
B|-----------------------------------|
G|-12-9-11----9----------------------|
D|---------12---11-12-9-11----9----5-|
A|-------------------------12---10-5-|
E|---------------------------------3-|

Guitar I  (James)
E|---------------------------------|
B|---------------------------------|
G|---------------------------------|
D|-5-5-5--5--5-5-5-----------------|
A|-5-5-5--5--5-5-5-----------------|
E|-3-3-3--3--3-3-3-----------------|

Guitar II  (Kirk)                  |
E|---------------------------------|
B|---------------------------------|
G|---------------------------------|
D|-5-5-5--5--5-5-5-----------------|
A|-5-5-5--5--5-5-5-----------------|
E|-3-3-3--3--3-3-3-----------------|

Guitar I  (James)
E|---------------------------------|
B|--------------12------10-------12|
G|-12-9-11----9----12-9----11-12---|
D|---------12----------------------|
A|---------------------------------|
E|---------------------------------|

Guitar II  (Kirk)                  |
E|---------------------------------|
B|---------------------------------|
G|-12-9-11----9--------------------|
D|---------12---11-12-9-11----9----|
A|-------------------------12---10-|
E|---------------------------------|

Verse:
E|-----------------------------------------------------------------|
B|-----------------------------------------------------------------|
G|-----------------------------------------------------------------|
D|-2-(2)-----------------------------------------------------------|
A|-2-(2)-----------------------------------------------------------|
E|-0-(0)-----------------------------------------------------------|

E|-----------------------------------------------------------------|
B|-----------------------------------------------------------------|
G|-----------------------------------------------------------------|
D|-5-(5)---------------------------5-------------------------------|
A|-5-(5)---------------------------5-------------------------------|
E|-3-(3)---------------------------3-------------------------------|

E|-----------------------------------------------------------------|
B|-----------------------------------------------------------------|
G|-----------------------------------------------------------------|
D|-2-(2)-----------------------------------------------------------|
A|-2-(2)-----------------------------------------------------------|
E|-0-(0)-----------------------------------------------------------|

E|-----------------------------------------------------------------|
B|-----------------------------------------------------------------|
G|-----------------------------------------------------------------|
D|-5-(5)---------------------------10-(10)------------7-(7)--------|
A|-5-(5)---------------------------10-(10)------------7-(7)--------|
E|-3-(3)---------------------------8--(8)-------------5-(5)--------|
      
E|-----------------------------------------------------------------|
B|-----------------------------------------------------------------|
G|-----------------------------------------------------------------|
D|-2-(2)-----------------------------------------------------------|
A|-2-(2)-----------------------------------------------------------|
E|-0-(0)-----------------------------------------------------------|

E|-----------------------------------------------------------------|
B|-----------------------------------------------------------------|
G|-----------------------------------------------------------------|
D|-5-(5)---------------------------5-------------------------------|
A|-5-(5)---------------------------5-------------------------------|
E|-3-(3)---------------------------3-------------------------------|

E|-----------------------------------------------------------------|
B|-----------------------------------------------------------------|
G|-----------------------------------------------------------------|
D|-2-(2)-----------------------------------------------------------|
A|-2-(2)-----------------------------------------------------------|
E|-0-(0)-----------------------------------------------------------|

E|----------------------------------------------------------------|
B|-----------------------------------------------------------------|
G|-----------------------------------------------------------------|
D|-5-(5)---------------------------10-(10)------------7-(7)--------|
A|-5-(5)---------------------------10-(10)------------7-(7)--------|
E|-3-(3)---------------------------8--(8)-------------5-(5)--------|

Chorus:
E|--------------------------------------------|
B|--------------------------------------------|
G|----------------------------------------3---|
D|-2-2-2-5-(5)--2-2-2-7-(7)--2-2-2-5-(5)--3-4-|
A:-2-2-2-5-(5)--2-2-2-7-(7)--2-2-2-5-(5)--1-4-|
E|-0-0-0-3-(3)--0-0-0-5-(5)--0-0-0-3-(3)----2-|
PM . . .        . . .        . . .

E|----------------------------------------------|
B|----------------------------------------------|
G|----------------------------------------3-----|
D|-2-2-2-5-(5)--2-2-2-7-(7)--2-2-2-5-(5)--3-4-3-|
A:-2-2-2-5-(5)--2-2-2-7-(7)--2-2-2-5-(5)--1-4-3-|
E|-0-0-0-3-(3)--0-0-0-5-(5)--0-0-0-3-(3)----2-1-|
PM . . .        . . .        . . . 

E|--------------------------------------------|
B|--------------------------------------------|
G|----------------------------------------3---|
D|-2-2-2-5-(5)--2-2-2-7-(7)--2-2-2-5-(5)--3-4-|
A:-2-2-2-5-(5)--2-2-2-7-(7)--2-2-2-5-(5)--1-4-|
E|-0-0-0-3-(3)--0-0-0-5-(5)--0-0-0-3-(3)----2-|
PM . . .        . . .        . . .                      

E|----------------------------------------------|
B|----------------------------------------------|
G|----------------------------------------3-----|
D|-2-2-2-5-(5)--2-2-2-7-(7)--2-2-2-5-(5)--3-4-3-|
A:-2-2-2-5-(5)--2-2-2-7-(7)--2-2-2-5-(5)--1-4-3-|
E|-0-0-0-3-(3)--0-0-0-5-(5)--0-0-0-3-(3)----2-1-|
PM . . .        . . .        . . .

End Rift:
E|-----------------------------------------------------------------|
B|-----------------------------------------------------------------|
G|-----------------------------------------------------------------|
D|-2-(2)--4-4--2-(2)--4-4--5-5-------------------------------------|
A|-2-(2)--4-4--2-(2)--4-4--5-5----------ETC..----------------------|
E|-0-(0)--2-2--0-(0)--2-2--3-3-------------------------------------|
Composição de Cliff Burton / James Hetfield / Lars Ulrich
Colaboração e revisão:
  • Élison Duarte
8.389 exibições
    • ½ Tom
    • A
    • Bb
    • B
    • C
    • Db
    • D
    • Eb
    • E
    • F
    • F#
    • G
    • Ab
  • Adicionar à lista

    0 comentários

    Ver todos os comentários

    Conseguiu tocar?

    0 Tocaram 0 Ainda não

    Grave um vídeo tocando For Whom The Bell Tolls e nos envie!

    00:00 / 00:00
    outros vídeos desta música
    repetir qualidade Automático
    Outros vídeos desta música
    00:00 / 00:00
    Automático
    Capítulos
    • Início
    • Tocando trecho da música
    • Dicas para Power chords
    • Tocando intro (Riff 1 e 2)
    • Ensinando Riff 1
    • Ensinando Riff 2
    • Tocando Solo e Riff 4
    • Ensinando Guitarra base (Solo)
    • Ensinando Solo
    • Ensinando Riff 4
    • Tocando primeira parte e refrão (Riff 3 e 4)
    • Tocando Solo 1 e 2
    • Ensinando Solo 1 (Parte 1)
    • Ensinando Solo 1 (Parte 2 - 4)
    • Ensinando Solo 2 (Parte 1)
    • Ensinando Solo 2 (Parte 2 e 3)
    • Dicas para música (repetição)
    • Tocando Riff 5 - Bends e Harmônicos
    • Ensinando Riff 5
    • Bends Uníssono
    • Harmônicos
    • Encerramento

    Cifra Club Pro

    Aproveite o Cifra Club com benefícios exclusivos e sem anúncios
    Cifra Club Pro
    Aproveite o Cifra Club com benefícios exclusivos e sem anúncios
    OK