Cifra Club

For Whom The Bell Tolls

Metallica

Tab de baixo: Principal
[Introdução]

[Parte 1 de 4]

G|-------------------------------------------------|
D|-------------------------------------------------|
A|-------------------------------------------------|
E|--2-2---2-2--------------------------------------|

G|-----19-18-17-16--19p0-------19------------------|
D|-----------------------17-16---------------------| 
A|--------------------------------17-16~\----------| (x3)
E|--0----------------------------------------------|

G|----19-18-17-16-19p0-------19--------------------|
D|---------------------17-16-----------------------|
A|------------------------------17-16h17p16h17p16~\|
E|--0----------------------------------------------|

G|-----19-18-17-16--19p0-------19------------------|
D|-----------------------17-16---------------------|
A|--------------------------------17-16~\----------|
E|--0----------------------------------------------|

G|-----19-19-18-18-17-17-16--16-------19-----------|
D|------------------------------17-16--------------|
A|---------------------------------------17-16~\---|
E|--0----------------------------------------------|

G|-----19-18-17-16--19p0-------19------------------|
D|-----------------------17-16---------------------|
A|--------------------------------17-16~\----------|
E|--0----------------------------------------------|

G|---19-18-17-16-------19--------------------------|
D|---------------17-16-----------------------------|
A|------------------------17-16h17-16-16h17p16~\---|
E|-0-----------------------------------------------|

[Parte 2 de 4]

G|-------------------------------------------------|
D|-------------------------------------------------|
A|-----------------------------------0-------------|
E|--0-3-2-1--0-3-2-1--0-3-2-1--0-2-3---------------|

G|-------------------------------------------------|
D|-------------------------------------------------| 
A|-----------------------------------2-------------| 
E|--0-3-2-1--0-3-2-1--0-3-2-1--0-2-3---------------|

G|-------------------------------------------------|
D|-------------------------------------------------|
A|-----------------------------------0-------------|
E|--0-3-2-1--0-3-2-1--0-3-2-1--0-2-3---------------|

G|-------------------------------------------------|
D|-------------------------------------------------| 
A|-----------------------------------2-------------| 
E|--0-3-2-1--0-3-2-1--0-3-2-1--0-2-3---------------|

G|-------------------------------------------------|
D|-------------------------------------------------|
A|-----------------------------------0-------------|
E|--0-3-2-1--0-3-2-1--0-3-2-1--0-2-3---------------|

G|-------------------------------------------------|
D|-------------------------------------------------| 
A|-----------------------------------2-------------| 
E|--0-3-2-1--0-3-2-1--0-3-2-1--0-2-3---------------|

G|-------------------------------------------------|
D|-------------------------------------------------|
A|-----------------------------------0-------------|
E|--0-3-2-1--0-3-2-1--0-3-2-1--0-2-3---------------|

G|-------------------------------------------------|
D|-------------------------------------------------|
A|-----------------------------------2/------------|
E|--0-3-2-1--0-3-2-1--0-3-2-1--0-2-3---------------|

[Parte 3 de 4]

G|------9-------9-------9-------9------------------|
D|------9-------9-------9-------9------------------| 
A|------7-------7-------7-------7------------------| (x2)
E|--0---0---0---0---0---0---0---0------------------|

G|-------------------------------------------------|
D|-------------------------------------------------|
A|-------------------------------------------------|
E|--3---------------3\-------10h12\----------------|

G|------9-------9-------9-------9------------------|
D|------9-------9-------9-------9------------------|
A|------7-------7-------7-------7------------------|
E|--0---0---0---0---0---0---0---0------------------|

G|----------------------5/-------------------------|
D|------------------------------7\-----------------|
A|------------------3-------0----------------------|
E|--3----------------------------------------------|

G|------9-------9-------9-------9------------------|
D|------9-------9-------9-------9------------------|
A|------7-------7-------7-------7------------------|
E|--0---0---0---0---0---0---0---0------------------|

G|-------------------------------------------------|
D|-------------------------------------------------|
A|-------------------------------------------------|
E|--3---3---0-3-3-3-3--------10h12\----------------|

G|------9-------9-------9-------9------------------|
D|------9-------9-------9-------9------------------|
A|------7-------7-------7-------7------------------|
E|--0---0---0---0---0---0---0---0------------------|

G|----------------------5/-------------------------|
D|------------------------------7\-----------------|
A|------------------3-------0----------------------|
E|--3---3--3--x-3-x--------------------------------|

[Parte 4 de 4]

G|-------------------------------------------------|
D|-------------------------------------------------|
A|-------------------------------------------------|
E|--0-0-0-3---0-0-0-5---0-0-0-3--0-6---2-----------|

G|-------------------------------------------------|
D|-------------------------------------------------|
A|-------------------------------------------------|
E|--0-0-0-3---0-0-0-5---0-0-0-3-0-0-6--2--1--------|

G|-------------------------------------------------|
D|-------------------------------------------------|
A|-------------------------------------------------|
E|--0-0-0-3---0-0-0-5---0-0-0-3--0-6---2-----------|

G|-------------------------------------------------|
D|-------------------------------------------------|
A|-------------------------------------------------|
E|--0-0-0-3---0-0-0-5---0-0-0-3-0-0-6--2--1--------|

[Primeira Parte]

G|------9-------9-------9-------9\-----------------|
D|------9-------9-------9-------9\-----------------|
A|------7-------7-------7-------7\-----------------|
E|--0---0---0---0---0---0---0---0------------------|

G|-------------------------------------------------|
D|-------------------------------------------------|
A|----------------------------5h7------------------|
E|--3---3-------3---3\-----------------------------|

G|------9-------9-------9-------9------------------|
D|------9-------9-------9-------9------------------|
A|------7-------7-------7-------7------------------|
E|--0---0---0---0---0---0---0---0------------------|

G|----------------------5/-------------------------|
D|------------------------------7\-----------------|
A|------------------3-------0----------------------|
E|--3--------0-3--0--------------------------------|

G|------9-------9-------9-------9------------------|
D|------9-------9-------9-------9------------------|
A|------7-------7-------7-------7------------------|
E|--0---0---0---0---0---0---0---0------------------|

G|-------------------------------------------------|
D|-------------------------------------------------|
A|----------------------------5h7------------------|
E|--3---------0-3---3------------------------------|

G|------9-------9-------9--------------------------|
D|------9-------9-------9--------------------------|
A|------7-------7-------7--------------------------|
E|--0---0---0---0---0---0---0---0-0-0--------------|

G|----------------------5/-------------------------|
D|------------------------------7\-----------------|
A|------------------3-------0----------------------|
E|--3----------3/-0--------------------------------|

[Refrão]

G|-------------------------------------------------|
D|-------------------------------------------------|
A|-------------------------------------------------|
E|--0-0-0-3/--0-0-0-5\--0-0-0-3--0-6---2-----------|

G|-------------------------------------------------|
D|-------------------------------------------------|
A|-------------------------------------------------|
E|--0-0-0-3---0-0-0-5---0-0-0-3-0-0-6--2--1--------|

G|-------------------------------------------------|
D|-------------------------------------------------|
A|-------------------------------------------------|
E|--0-0-0-3---0-0-0-5---0-0-0-3--0-6\--2-----------|

G|-------------------------------------------------|
D|-------------------------------------------------|
A|-------------------------------------------------|
E|--0-0-0-3---0-0-0-5---0-0-0-3-0-0-6--2--1--------|

[Ponte]

G|--9----9----9------------------------------------|
D|--9----9----9------------------------------------|
A|--7----7----7------------------------------------|
E|--0----0----0-/12\--3--3-3-3-3--3-3-3------------|

G|-------------------------------------------------|
D|-------------------------------------------------|
A|-------------------------------------------------|
E|--0-0-0-0-----0-7---/12\-------------------------|

G|-------9----9------------------------------------|
D|-------9----9------------------------------------|
A|-------7----7------------------------------------|
E|--0----0----0--12\--3--3-3-3-3--3-3-3------------|

G|-------------------------------------------------|
D|-------------------------------------------------|
A|-------------------------------------------------|
E|--0-–-------2/7-7-----7\-------------------------|

[Segunda Parte]

G|------9-------9-------9-------9\-----------------|
D|------9-------9-------9-------9\-----------------|
A|------7-------7-------7-------7\-----------------|
E|--0---0---0---0---0---0---0---0------------------|

G|-------------------------------------------------|
D|-------------------------------------------------|
A|----------------------------5h7------------------|
E|--3--------0-3--0-3/--x–-------------------------|

G|------9-------9-------9-------9\-----------------|
D|------9-------9-------9-------9\-----------------|
A|------7-------7-------7-------7\-----------------|
E|--0---0---0---0---0---0---0---0------------------|

G|----------------------5/-------------------------|
D|------------------------------7\-----------------|
A|------------------3-------0----------------------|
E|--3--------0-3--0--------------------------------|

G|------9-------9-------9-------9\-----------------|
D|------9-------9-------9-------9\-----------------|
A|------7-------7-------7-------7\-----------------|
E|--0---0---0---0---0---0---0---0------------------|

G|-------------------------------------------------|
D|-------------------------------------------------|
A|----------------------------5h7------------------|
E|--3---3----3-3--3-3------------------------------|

G|------9-------9-------9-------9\-----------------|
D|------9-------9-------9-------9\-----------------|
A|------7-------7-------7-------7\-----------------|
E|--0---0---0---0---0---0---0---0------------------|

G|----------------------5/-------------------------|
D|------------------------------7\-----------------|
A|------------------3-------0----------------------|
E|--3---3-3--0-3/-0--------------------------------|

[Refrão]

G|-------------------------------------------------|
D|-------------------------------------------------|
A|-------------------------------------------------|
E|--0-0-0-3---0-0-0-5---0-0-0-3--0-6---2-----------|

G|-------------------------------------------------|
D|-------------------------------------------------|
A|-------------------------------------------------|
E|--0-0-0-3---0-0-0-5---0-0-0-3-0-0-6--2--1--------|

G|-------------------------------------------------|
D|-------------------------------------------------|
A|-------------------------------------------------|
E|--0-0-0-3---0-0-0-5---0-0-0-3--0-6---2-----------|

G|-------------------------------------------------|
D|-------------------------------------------------|
A|-------------------------------------------------|
E|--0-0-0-3---0-0-0-5---0-0-0-3-0-0-6\-2--1--------|

[Final]

G|-------11-11---------11-11--12-12----------------|
D|-------11-11---------11-11--12-12----------------|
A|-------9--9-----7----9--9---10-10----------------|
E|--0-------------0--------------------------------|

G|-------11-11---------11-11--12-12----------------|
D|-------11-11---------11-11--12-12----------------| (x7)
A|--7----9--9-----7----9--9---10-10----------------|
E|--0-------------0--------------------------------|

G|-------------------------------------------------|
D|-------------------------------------------------|
A|-------------------------------------------------|
E|--0----------------------------------------------|
00:00 / 00:00
Outros vídeos desta música
Repetir
Outros vídeos desta música
Composição de Cliff Burton / James Hetfield / Lars Ulrich
Colaboração e revisão:
  • Samuel Chacon
  • ZZ160 RZZ
  • Bruno Carvalho
79.515 exibições

0 comentários

Ver todos os comentários

Entre para oCifra Club PRO

Tenha acesso a benefícios exclusivos no App e no Site

  • Chega de anúncios

  • Prioridade de compra em lançamentos

  • Mais recursos no app do Afinador

  • Atendimento Prioritário

  • Descontos nos produtos Cifra Club

  • Ajude a produzir mais conteúdo

00:00 / 00:00
Capítulos
  • Tocando a Música
  • Ensinando Introdução - Parte 1
  • Ensinando Introdução - Parte 2
  • Ensinando Introdução - Parte 3
  • Ensinando Introdução - Parte 4
  • Ensinando Ponte
  • Ensinando Final
  • Encerramento

Cifra Club Pro

Aproveite o Cifra Club com benefícios exclusivos e sem anúncios
Cifra Club Pro
Aproveite o Cifra Club com benefícios exclusivos e sem anúncios
OK