Cifra Club

For Whom The Bell Tolls

Metallica

Tab de baixo: Principal
exibições 64.761
 Intro
                                                 
       Sinos ...     
G+------------------------------------+------------------------------------+
D|------------------------------------|------------------------------------|
A|------------------------------------|------------------------------------|
E+------------------------------------+------------2-2----2-2-------0------+

                                                       
      Repetir esse solo 8X
                      
G+--19-18-17-16-------19--------------+-----------------------------------+
D|--------------17-16-----------------|-----------------------------------|
A|-----------------------17-16~~~-----|-----------------------------------|
E+--------------------------------0---+-----------------------------------+

      4X antes das guitarras             4x com as guitarras
G+------------------------------------+------------------------------------+
D|------------------------------------|------------------------------------|
A|------------------------------------|------------------------------------|
E+-0-3-2-1--0-3-2-1-0--3-2-1--0-2-3-5-+-0-3-2-1--0-3-2-1-0--3-2-1--0-2-3-5-|

  Batidas na corda E atentar a bateria repete essa variação 2x.
G+------------------------------------+-----------------------------------+
D|------------------------------------|-----------------------------------|
A|------------------------------------|--------------------3--------------|
E+----0-0-0-0-0-0-0-3-3/--(12)--------+-----0-0-0-0-0-0-0-3--5------------|

   Repete 2x                                       
G+------------------------------------+-----------------------------------+
D|------------------------------------|-----------------------------------|
A|------------------------------------|-----------------------------------|
E+----0-0-0-3-0-0-0-5-0-0-0-3-6-2-----+--0-0-0-3-0-0-0-5-0-0-0-3-6-2-1----|


     Vocal primeira parte  repete 2x
G+------------------------------------+------------------------------------+
D|------------------------------------|------------------------------------|
A|------------------------------------|---------------------3--------------|
E+----0---0---0---0--3--3/--(12)------+----0---0---0---0--3---5------------+

      Refrão 2x
G+------------------------------------+-----------------------------------+
D|------------------------------------|-----------------------------------|
A|------------------------------------|-----------------------------------|
E+----0-0-0-3-0-0-0-5-0-0-0-3-6-2-----+--0-0-0-3-0-0-0-5-0-0-0-3-6-2-1----|


      Solo repete 2x   (sincronizar com a bateria)
G+-------------------------------------------------------------------------+
D|-------------------------------------------------------------------------|
A|-------------------------------------------------2-----------------------|
E+-0-0-0-0-0-0-0-12-0-0-0-0-0-0-0-3-3-3-3-3-3-0-0----0---------------------+


       Vocal segunda parte  repete 2x          
G+------------------------------------+------------------------------------+
D|------------------------------------|------------------------------------|
A|------------------------------------|---------------------3--------------|
E+----0---0---0---0--3--3/--(12)------+----0---0---0---0--3---5------------+


       Refrão 2x
G+------------------------------------+-----------------------------------+
D|------------------------------------|-----------------------------------|
A|------------------------------------|-----------------------------------|
E+----0-0-0-3-0-0-0-5-0-0-0-3-6-2-----+--0-0-0-3-0-0-0-5-0-0-0-3-6-2-1----|


       Final  repete 8x

G+------------------------------------+------------------------------------+
D|------------------------------------|------------------------------------|
A|------------------------------------|------------------------------------|
E+----0--2-2-0--2-2--3-3--------------+------------------------------------+

Composição: Cliff Burton / James Hetfield / Lars UlrichColaboração e revisão:
  • Bruno Carvalho

0 comentários

    mostrar mais comentários

    Conseguiu tocar?

    25tocaram0ainda não

    Grave um vídeo tocando For Whom The Bell Tolls e mande pra gente!

    00:00 / 00:00
    outros vídeos desta música
    repetirqualidadeautomática
    Outro vídeos desta música
      00:00 / 00:00
      automática
      OK