Cifra Club

Aprenda

For Whom The Bell Tolls

Metallica

Tab de baixo: Ao-vivo
G|------7---9-7-9-10-9-10-12-10-12-14-12-14-15-14-15-17-15-17-19-17-19-22-21-19---|
D|------0---0-0-0-0--0-0--0--0--0--0--0--0--0--0--0--0--0--0--0--0--0--0--0--0----|
A|-9--7---------------------------------------------------------------------------|
E--0--0---------------------------------------------------------------------------|


G|-17-19-15-17-14-15-12-14-10-9-7--|
D|-0--0--0--0--0--0--0--0--0--0-0--|
A|---------------------------------|
E|---------------------------------|

G|------------------------------------------------------------------------------------------|
D|----3\9---10---10---10---10-12-10-12-10-12-10-12\(4)/15-17-15-17-15-17-15-17-15-17-15-17~-|
A|--------------12---12---12----------------------------------------------------------------|
E|------------------------------------------------------------------------------------------|

G|--------17---15--------------------------------|
D|-----15---17---15------------------------------|
A|-------------------15-17-15-17-15-17-15-17~----|
E|---------------------------------------------0~|

G-||--19-18-17-16*--19p16-------19---------||---------19-18-17-16*--19p16-------19b--19b--19*--||
D-||----------------------17-16------------||-----------------------------17-16----------------||
A-||-------------------------------17-16*--||--------------------------------------------------||
E-||---------------------------------------||--16*-------------------------------------------||

G-||--19-18-17-16*--19p16-------19---------||---------19-18-17-16*--||
D-||----------------------17-16------------||-----------------------||
A-||-------------------------------17-16*--||-----------------------||
E-||---------------------------------------||--16*----------------||
     
     (keep hammering for 2 measures)                                      (then end on)
G-||--19p16------16h19------16h19-------19p16------16h19------16h19-------||--19b*--||
D-||--------0h19-------0h19-------0h19--------0h19-------0h19-------0h19--||--------||
A-||----------------------------------------------------------------------||--------||
E-||----------------------------------------------------------------------||--------||

G-||---------------19-18-17-16*--19p16-------19---------||---------19-18-17-16*--||
D-||-----------------------------------17-16------------||-----------------------||
A-||--------------------------------------------17-16*--||-----------------------||
E-||--2-2--2-2--0*--------------------------------------||--16*----------------||

G-||---------------19-18-17-16*--19p16-------19---------||------19-18-17-16*--||
D-||-----------------------------------17-16------------||--------------------||
A-||--------------------------------------------17-16*--||--------------------||
E-||--2-2--2-2--0*--------------------------------------||--0*----------------||

    (i'm not too sure on this part)
G-||--19p16-------17b--17b--17-16--||------19-18-17-16*--||
D-||--------17-16------------------||--------------------||
A-||-------------------------------||--------------------||
E-||-------------------------------||--0*----------------||

G-||-----19-18-17-16*--19p16-------19---------||---------19-18-17-16*--||
D-||-------------------------17-16------------||-----------------------||
A-||----------------------------------17-16*--||-----------------------||
E-||--0*--------------------------------------||--16*----------------||

                 |--------------triplet feel-----------------|
G-||--19p16-------17-17-17b--17-17-17b--17-17-17b--17b--17-16-||
D-||--------17-16---------------------------------------------||
A-||----------------------------------------------------------||
E-||----------------------------------------------------------||

G-||------------------------------------||------------------------------------||
D-||o-----------------------------------||-----------------------------------o|| x4
A-||o--------------------------------0--||--------------------------------2--o||
E-||---0-3-2-1-0-3-2-1-0-3-2-1-0-3-2----||--0-3-2-1-0-3-2-1-0-3-2-1-0-3-2-----||

G-||------------------------------------------------------------||-----------------------------------------||
D-||------------------------------------------------------------||-----------------------------------------||
A-||------------------------------------------------------------||------------------------------3-333-0-000||
E-||--0-0*---0*---0*---0*---0*---0*---0*---0-3*---3*---3---3/5--||--0-0*---0*---0*---0-3*---3*-------------||
        S    S    S    S    S    S    S      S    S                   S    S    S      S    S

G-||----------------------------------------||-------------------------------------------||
D-||o---------------------------------------||------------------------------------------o||
A-||o---------------------------------------||------------------------------3-333-0-000-o||
E-||--0-0*---0*---0*---0-3*---3*---3---3/5--||--0-0*---0*---0*---0-3*---3*---------------||
        S    S    S    S S    S                   S    S    S    S S    S

chorus riff
G-||-------------------------------------||---------------------------------------||
D-||-------------------------------------||---------------------------------------|| x2
A-||-------------------------------------||---------------------------------------||
E-||--0-0-0-3---0-0-0-5---0-0-0-3---6-2--||--0-0-0-3---0-0-0-5---0-0-0-3---6-2-1--||

verse
G-||----------------------------------------||-------------------------------------------||
D-||o---------------------------------------||------------------------------------------o|| x2
A-||o---------------------------------------||------------------------------3-333-0-000-o||
E-||--0-0*---0*---0*---0-3*---3*---3---3/5--||--0-0*---0*---0*---0-3*---3*---------------||
        S    S    S    S S    S                   S    S    S    S S    S

chorus riff
G-||-------------------------------------||---------------------------------------||
D-||-------------------------------------||---------------------------------------|| x2
A-||-------------------------------------||---------------------------------------||
E-||--0-0-0-3---0-0-0-5---0-0-0-3---6-2--||--0-0-0-3---0-0-0-5---0-0-0-3---6-2-1--||

bridge
G-||-----------------------------------------------------------------------------------------||
D-||-----------------------------------------------------------------------------------------||
A-||-----------------------------------------1*------------------------------------------1*--||
E-||--0*---0*---0*---3---3-3-3-3--3-3-3-0*--------0*---0*---0*---3---3-3-3-3--3-3-3-0*-------||

verse
G-||----------------------------------------||-------------------------------------------||
D-||o---------------------------------------||------------------------------------------o|| x2
A-||o---------------------------------------||------------------------------3-333-0-000-o||
E-||--0-0*---0*---0*---0-3*---3*---3---3/5--||--0-0*---0*---0*---0-3*---3*---------------||
        S    S    S    S S    S                   S    S    S    S S    S

chorus riff
G-||-------------------------------------||---------------------------------------||
D-||-------------------------------------||---------------------------------------|| x2
A-||-------------------------------------||---------------------------------------||
E-||--0-0-0-3---0-0-0-5---0-0-0-3---6-2--||--0-0-0-3---0-0-0-5---0-0-0-3---6-2-1--||

outro
G-||---------------------------||
D-||---------------------------|| (repeat til end)
A-||---------------------------||
E-||--0*---2-2-0*---2-2---3-3--||
Composição de Cliff Burton / James Hetfield / Lars Ulrich
Colaboração e revisão:
  • Emerson
2.825 exibições

0 comentários

Ver todos os comentários

Conseguiu tocar?

1 Tocaram 0 Ainda não

Grave um vídeo tocando For Whom The Bell Tolls e nos envie!

00:00 / 00:00
outros vídeos desta música
repetir qualidade Automático
Outros vídeos desta música
00:00 / 00:00
Automático

Cifra Club Pro

Aproveite o Cifra Club com benefícios exclusivos e sem anúncios
Cifra Club Pro
Aproveite o Cifra Club com benefícios exclusivos e sem anúncios
OK