Cifra Club

Aprenda

Free Speech For The Dumb

Metallica

Cifra: Principal (violão e guitarra)
tom: A
Gtr I (C# F# B E G# C#) - 'James Hetfield - Rhythm w/dist'
Gtr II (C# F# B E G# C#) - 'Kirk Hammett - Rhythm / Lead w/dist'

Gtr I
     PM--------------------|
  Q  E E E E E E   E E E E E Q.
|----------------|----------------|
|----------------|----------------|
|----------------|----------------|
|----------------|----------------|
|-2--------------|-----------5----|
|-0--0-0-0-0-0-0-|-0-0-0-0-0-3----|
|-Rhy Fig 1         end Rhy Fig 1-|

w/Rhy Fig 1 x9
  Gtr II
  PM------------------------|              PM--------------------|
  E E E E E E E E   E E E E E  Q.       Q  E E E E E E   E E E E E  Q.    8x
|-----------------|-----------------||-----------------|------------------||
|-----------------|-----------------||o----------------|-----------------o||
|-----------------|-----------------||-----------------|------------------||
|-----------------|-----------12----||--9--------------|-----------12-----||
|-----------------|-----------10----||o-7--------------|-----------10----o||
|-0-0-0-0-0-0-0-0-|-0-0-0-0-0-------||-----0-0-0-0-0-0-|-0-0-0-0-0--------||
                                     |-Rhy Fig 1A          end Rhy Fig 1A-|


 Guitar Solo
w/Rhy Fig 1 x22
                             |--3--|
  Q  E  E  S  S  S  S  S  S  S  S  S
|------------------------------------|
|------12-15p12-12-15-15p12-15p14p12-|
|------------------------------------|
|-9----------------------------------|
|-7----------------------------------|
|------------------------------------|

                           |--3--|
   S  S  S  S  S  S  S  S  S  S  S  S   S  S E.
|-----------------------------------------------|
|-15-12-15-14-12-15-12-12-15p14p12-14--10-12-9--|
|-----------------------------------------------|
|-----------------------------------------------|
|-----------------------------------------------|
|-----------------------------------------------|

   |-3--|
   S  S S  E  E E S S S S +E   E   Q    Q    E   E E E
|--------------------------------|-----------0---------|
|-12p10p8-11-10-8-5-8-5-7-(7)\-5-|-2s==25\-----/12p0-0-|
|--------------------------------|---------------------|
|--------------------------------|---------------------|
|--------------------------------|---------------------|
|--------------------------------|---------------------|

                                   |------3------|
   E      +E   E  E        +E   E  E      +E     E
|---------------------------------------------------|
|--------------0-12b12.5==(12)r-0----------------0--|
|-12b16==(12)r-0-12b12.5==(12)r-0-12b14==(12)r---0--|
|---------------------------------------------------|
|---------------------------------------------------|
|---------------------------------------------------|

                                  |-----3-----|
   E      +E   E  E      +E   E   E      +E   E
|-----------------------------------------------|
|-14b15==(14)r-0-14b15==(14)r-0--14b15==(14)r-0-|
|-14b16==(14)r-0-14b16==(14)r-0--14b16==(14)r-0-|
|-----------------------------------------------|
|-----------------------------------------------|
|-----------------------------------------------|

   E      +E   E  E      +E   E  E E    E   E    E       E  E  E   E  E
|------------------------------------|----------------------------------|
|--------------0--------------0----0-|----[12]-[12]b15==12-12-12--12r-0-|
|-12b14==(12)r-0-12b16==(12)r-0-12-0-|-14-------------------------------|
|------------------------------------|----------------------------------|
|------------------------------------|----------------------------------|
|------------------------------------|----------------------------------|


   E.    +S   E   E        +E      Q        E
|-------------------------------------------------|
|-12b15r(12)--------------------------------------|
|------------12-[14]b17==([14])r-[14]b17---12b16==|
|-------------------------------------------------|
|-------------------------------------------------|
|-------------------------------------------------|

   +E   +E   E  E  E  E   E  E     E        +E     E  E      +E   E   E     E
|------------------------------|----------------------------------------------|
|------------------------------|----------------------------------------------|
|-(12)r(12)----------12--14-12-|-[14]b19==([14])r-12-14b16==(14)r-0-[14]b16-0-|
|-----------15-12-14-----------|----------------------------------------------|
|------------------------------|----------------------------------------------|
|------------------------------|----------------------------------------------|

    E       +E   E  E      +E   E   E E
|---------------------------------------|
|-------------------------------0-----0-|
|-[14]b16==(14)r-0-14b16==(14)r-0--14-0-|
|---------------------------------------|
|---------------------------------------|
|---------------------------------------|


                               ~~~~~
                                                |--3--|
   H           +Q.      +E     H.               E  E  E
|---------------------------|------------------12-------|
|-15b19=======(15)r====(15)-|-15b17---------------15p12-|
|---------------------------|---------------------------|
|---------------------------|---------------------------|
|---------------------------|---------------------------|
|---------------------------|---------------------------|


   Q.       E      +Q.       E        +E   +E   E  E  E     +S  S  E E
|-15b20----15b20==(15)r-----15b20==|=(15)r(15)-12-15-12b14r(12)s7s16-0-|
|-15b20----15b20==(15)r-----15b20==|=(15)r(15)-------------------------|
|----------------------------------|-----------------------------------|
|----------------------------------|-----------------------------------|
|----------------------------------|-----------------------------------|
|----------------------------------|-----------------------------------|

   |-3-|  |--3--|  |--3--|
   E E E  E E   E  E E   E S S S S
|-15p0-0-14p0---0-15p0---0-7p0-8p0--|
|-----------------------------------|
|-----------------------------------|
|-----------------------------------|
|-----------------------------------|
|-----------------------------------|

    |--3--|       |--3---| |-3-|
    E E   E E   E E E    E E E E
|-/22p0---0-0-/22p0-0----0-0-0-0-|
|--------------------------------|
|--------------------------------|
|--------------------------------|
|--------------------------------|
|--------------------------------|

   |--3--| |3-|       |-3--|  |---3---|
   E  E  E E  Q       Q    E  E  E    E    E     +E  E  E     +Q     Q
|-12-12-12p0-12b13---12---12-12-12---12-|-12b13r(12)p0-12b13r(12)----0--|
|-12-12-12p0-12b13---12---12-12-12---12-|-12b13r(12)p0-12b13r(12)----0--|
|---------------------------------------|----------------------------0--|
|---------------------------------------|-------------------------------|
|---------------------------------------|-------------------------------|
|---------------------------------------|-------------------------------|


   Q      E     E  Q      E  E        +E    E  E     E  Q       E  E
|-12-----------12-12------0--------|---------------------------------|
|-15b17--15b17----15b17---0-12-----|-(12)--12-------12-12-------0----|
|---------------------------14b16==|=(14)r----14b16----14b16----0----|
|----------------------------------|------------------------------14-|
|----------------------------------|---------------------------------|
|----------------------------------|---------------------------------|


                ~~~~~~~~~~~~~~~~~
   +E   E  q    Q.      E    +E   E  E  E  E      +E   Q
|-------------------------|-------------------------------|
|----------------------12-|-(12)-12-----------------------|
|----------------------12-|-(12)-12-----------------------|
|-(14)-14-14---14---------|---------14-12-14b16==(14)r----|
|-------------------------|-------------------------------|
|-------------------------|-------------------------------|


   a  Q   E  E  E  E  E  E    E  E  E  E  E  E      +Q
|--------------------------|------------------------------|
|--------------------------|----------------12b13==(12)r--|
|--------------------------|----------------12b14==(12)r--|
|-12h14--14-14-14-14-14-14-|-14-14-14-14-14---------------|
|--------------------------|------------------------------|
|--------------------------|------------------------------|


   Q   E  E  E  E  E  E    E  E  E  E  E  E     +E   E
|-----------------------|------------------------------|
|-----------------------|------------------------------|
|-----------------------|----------------14b17r(14)p12-|
|-14--14-14-14-14-14-14-|-14-14-14-14-14---------------|
|-----------------------|------------------------------|
|-----------------------|------------------------------|


   Q   E  E  E  E  E  E    E  E  E  E  E  Q         +E
|-----------------------|--------------------------------|
|-----------------------|----------------12b12.5===(12)r-|
|-----------------------|----------------12b12.5===(12)r-|
|-14--14-14-14-14-14-14-|-14-14-14-14-14-----------------|
|-----------------------|--------------------------------|
|-----------------------|--------------------------------|


   Q   E  E  E  E  E  E    E  E  E  E  E  E      +Q
|-----------------------|------------------------------|
|-----------------------|----------------12b13==(12)r--|
|-----------------------|----------------12b14==(12)r--|
|-14--14-14-14-14-14-14-|-14-14-14-14-14---------------|
|-----------------------|------------------------------|
|-----------------------|------------------------------|

                                                                 |-----3-----|
   Q  E  E      +E   E  E    E    E      +E   E  E      +E   E   E      +E   E
|------------------------------|-----------------------------------------------|
|-12--0-12b13==(12)r-0-12b13-0-|-14b15==(14)r-0-14b15==(14)r-0--14b15==(14)r-0-|
|-12--0-12b14==(12)r-0-12b14-0-|-14b16==(14)r-0-14b16==(14)r-0--14b16==(14)r-0-|
|------------------------------|-----------------------------------------------|
|------------------------------|-----------------------------------------------|
|------------------------------|-----------------------------------------------|


   E      +E   E  E      +E   E  Q
|------------------------------------|
|-16b17==(16)r-0-16b17==(16)r-0-16---|
|-16b18==(16)r-0-16b18==(16)r-0-16---|
|------------------------------------|
|------------------------------------|
|------------------------------------|

   E      +E   E  E      +E   E   E  E
|--------------------------------------|
|-14b15==(14)r-0-14b15==(14)r-0--14-12-|
|-14b16==(14)r-0-14b16==(14)r-0--14-12-|
|--------------------------------------|
|--------------------------------------|
|--------------------------------------|


          ~~           ~~
   a  Q   Q    Q       Q      Q        Q     Q         +E   +E
|--------------------------|------------------------------------|
|--------------------------|-12b13---[12]-----------------------|
|-11h13--12---12b14---12---|-12b14---[12]---12b16=====(12)r(12)-|
|--------------------------|------------------------------------|
|--------------------------|------------------------------------|
|--------------------------|------------------------------------|


   ~~~~~~~~~~~~                                 PM--------|
   H       +Q.      E    +H         E Q.     Q  E E E E E E
|---------------------|--------------------|----------------|
|---------------------|--------------------|----------------|
|---------------------|--------------------|----------------|
|-14------(14)--------|--------------------|----------------|
|------------------14-|-(14)\---------5----|-2--------------|
|---------------------|-------------0-3----|-0--0-0-0-0-0-0-|


  PM------|            PM--------------------|
  E E E E E  Q.     Q  E E E E E E   E E E E E  Q.
|-----------------|----------------|-----------------||
|-----------------|----------------|-----------------||
|-----------------|----------------|-----------------||
|-----------12----|-9--------------|-----------12----||
|-----------10----|-7--------------|-----------10----||
|-0-0-0-0-0-------|----0-0-0-0-0-0-|-0-0-0-0-0-------||


   Verses
    $
     Rhy Fig 1 + 1A x8    -> To Coda after repeats on D.S.


 Guitar Solo
w/Rhy Fig 1 x14
  E E E E +E  E E E    E      +E   E  E      +E   E   E    E
|-------------------|----------------------------------------|
|-7-0-0-------------|----------------------------------------|
|-------7-(7)-0-9-0-|-12b14==(12)r-0-14b16==(14)r-0--16b18-0-|
|-------------------|----------------------------------------|
|-------------------|----------------------------------------|
|-------------------|----------------------------------------|


   E      +E   E  E      +E   E E.     S   E E E E     +E   E   E    E
|----------------------------------------|-----------------------------|
|-----------------------------0----------|-----------------------------|
|-14b18==(14)r-0-12b16==(12)r---9b11---7-|-7s9---9b11==(9)r-0--12b14-0-|
|----------------------------------------|-----0-----------------------|
|----------------------------------------|-----------------------------|
|----------------------------------------|-----------------------------|


                               \2.5/    \1/
   E      +Q      E      +E    Q        E
|-----------------------------15-------17---|
|-15b18==(15)r---15b19==(15)r----------17---|
|-------------------------------------------|
|-------------------------------------------|
|-------------------------------------------|
|-------------------------------------------|


          \1/    \1/     \1.5/
                                   ~~~~~~~~~~~~
   +Q     Q      Q       Q         H       +Q.      E
|-(17)---16-----17------16------|-15------(15)-----12-|
|-(17)---16-----17--------------|------------------12-|
|-------------------------------|---------------------|
|-------------------------------|---------------------|
|-------------------------------|---------------------|
|-------------------------------|---------------------|


               \0.5/  \0.5/
   Q     E  E  E      E     E   E
|-15\----------------------------------|
|-15\---10h12s13s====14----------------|
|---------------------------0-[14]b18==|
|--------------------------------------|
|--------------------------------------|
|--------------------------------------|

                    |---3---|                       |---3----|
   +E   +E   E  E  +E   E   E E   E         +Q     +E   E    E  E  E  E  E
|----------------------------------------|----------------------------0-15b17==|
|----------------------------------------|----------------------------0-15b17==|
|-(14)r(14)-14-14-(14)s16p==0-0-[14]b17==|=(14)r==(14)-14---14-14s16--0--------|
|----------------------------------------|-------------------------------------|
|----------------------------------------|-------------------------------------|
|----------------------------------------|-------------------------------------|


                ~~~~~~~
   +E   +E   E  E  +E    a  E E  E
|-(15)r(15)-------------------0-15b17==|
|-(15)r(15)-15-15-(15)-(15)p0-0-15b17==|
|--------------------------------------|
|--------------------------------------|
|--------------------------------------|
|--------------------------------------|


                ~~~~~~~                                 ~~~~~~~
   +E   +E   E  E  +E    a  E  E  E        +E   +E   E  E  +E  E  Q
|-(15)r(15)--------------------0-12b15==|=(12)r(12)------------0-12b15=====|
|-(15)r(15)-15-15-(15)-(15)p0--0--------|-----------12-12-(12)-0-12b15=====|
|---------------------------------------|----------------------------------|
|---------------------------------------|----------------------------------|
|---------------------------------------|----------------------------------|
|---------------------------------------|----------------------------------|


                ~~~~~~~
   +E   +E   E  E  +E    a  E  E  E
|-(12)r(12)--------------------0--------|
|-(12)r(12)-12-12-(12)-(12)p0--0--------|
|--------------------------------14b16==|
|---------------------------------------|
|---------------------------------------|
|---------------------------------------|

   +E   E  E E  E E  E E    E E  E E E +E   E  E
|------------------------|-----------------------|
|-------0----------------|------------------5s17-|
|-(14)r-0-16-0-12-0-14-0-|-11-0-12-0-9-(9)\------|
|------------------------|-----------------------|
|------------------------|-----------------------|
|------------------------|-----------------------|


             ~~~~~~~~~~~~~~~~~~~~~~~~~
  E E  E  E  E  E  E  E    E  E  E  E  E  E     +E   E
|-0-0-12-12-12-12-12-12-|-12-12-12-12-12-15b17r(15)p12-|
|--------------------12-|-------12-12----15b17r(15)----|
|-----------------------|------------------------------|
|-----------------------|------------------------------|
|-----------------------|------------------------------|
|-----------------------|------------------------------|


    E       +Q.      +E       +Q.
|-[15]b18==(15)-----(15)b20==(15)-----|
|-------------------------------------|
|-------------------------------------|
|-------------------------------------|
|-------------------------------------|
|-------------------------------------|


   +Q     E  +E   E  E   E  E    Q      E  E      +E    E  E     E
|-(15)---15r(15)-12-15--12----|-12-----12--------------12-------12-|
|-------------------15-----15-|-15b17-----15b17==(15)r----15b17----|
|-----------------------------|------------------------------------|
|-----------------------------|------------------------------------|
|-----------------------------|------------------------------------|
|-----------------------------|------------------------------------|


   Q       E  E      +E    E   E     E
|--------------------------------------|
|-12------12--------------12--------12-|
|-14b16------14b16==(14)r-----14b16----|
|--------------------------------------|
|--------------------------------------|
|--------------------------------------|


   Q       +S   S  S  S  S  S   S       S  S   S       S  S
|------------------------------------------------------------|
|-15------(15)-15-----------------------------16------16-16--|
|-14b16===(14)----14-14-14-14r-16pb18==16-16r-18pb20==18-18r-|
|------------------------------------------------------------|
|------------------------------------------------------------|
|------------------------------------------------------------|


                                       PM--------|
   |-----3------|
   E       E    E  E   E  H         Q  E E E E E E
|---------------------------------|-----------------|
|-17------17---17-17\-------------|-----------------|
|-19pb21==19---19-19r\------------|-----------------|
|---------------------------------|-----------------|
|---------------------------------|-2---------------|
|----------------------2s15\------|-0--0-0-0-0-0-0--|


                                        D.S. al Coda
  PM------|            PM--------------------|
  E E E E E  Q.     Q  E E E E E E   E E E E E  Q.
|-----------------|----------------|-----------------||
|-----------------|----------------|-----------------||
|-----------------|----------------|-----------------||
|-----------12----|-9--------------|-----------12----||
|-----------10----|-7--------------|-----------10----||
|-0-0-0-0-0-------|----0-0-0-0-0-0-|-0-0-0-0-0-------||


  &
     PM--------------------|
  Q  E E E E E E   E E E E E  Q.      +W
|----------------|-----------------|---------------|
|----------------|-----------------|---------------|
|----------------|-----------------|---------------|
|-9--------------|-----------12----|-(12)----------|
|-7--------------|-----------10----|-(10)----------|
|----0-0-0-0-0-0-|-0-0-0-0-0-------|---------------|
|
|    PM--------------------|                 PM-|
| Q  E E E E E E   E E E E E  Q.       H     q  q
|----------------|-----------------|---------------|
|----------------|-----------------|---------------|
|----------------|-----------------|---------------|
|----------------|-----------------|---------------|
|-2--------------|------------5----|---2-----5--5--|
|-0--0-0-0-0-0-0-|-0-0-0-0-0--3----|---0-----0--0--|


   +W             +H     H      q  Q  H
|--------------|--------------|------------*|
|--------------|--------------|------------*|
|--------------|--------------|------------*|
|-(12)---------|-(12)----9s===|=2----------*|
|-(10)---------|-(10)----7s===|=0----------*|
|--------------|--------------|------------*|
|
|      PM
|   Q  Q  H        W            W
|--------------|--------------|------------*|
|--------------|--------------|------------*|
|--------------|--------------|------------*|
|--------------|--------------|------------*|
|---2h=3-------|--------------|------------*|
|---0h=5-------|--------------|------------*|
Composição de Garry Maloney / Kelvin Cal Morris / Roy Rainy Wainwright / Tony Bones Roberts
Colaboração e revisão:
  • Leandro Angelis
5.726 exibições
    • ½ Tom
    • A
    • Bb
    • B
    • C
    • Db
    • D
    • Eb
    • E
    • F
    • F#
    • G
    • Ab
  • Adicionar à lista

    0 comentários

    Ver todos os comentários

    Conseguiu tocar?

    0 Tocaram 0 Ainda não

    Grave um vídeo tocando Free Speech For The Dumb e nos envie!

    00:00 / 00:00
    outros vídeos desta música
    repetir qualidade Automático
    Outros vídeos desta música
    00:00 / 00:00
    Automático

    Cifra Club Pro

    Aproveite o Cifra Club com benefícios exclusivos e sem anúncios
    Cifra Club Pro
    Aproveite o Cifra Club com benefícios exclusivos e sem anúncios
    OK