Cifra Club

Aprenda

Fuel

Metallica

Tab de baixo: Principal
tune all guitars down 1/2 step
1)
Db-----------------------------------------------
Ab--2---2-2---2-2---2---2-2---2-2---5/7-7-7-7\5-5
Eb--3p0-0-3p0-0-3p0-3p0-0-3p0-0-3p0-3/5-5-5-5\3-3
  pm...........................................
intro 
"Gimme Fuel, Gimme Fire, Gimme that which I desire"


2)
Db--------7-7-7-5--------7-7-7-5
Ab--0h5h7----------0h5h7--------
Eb------------------------------
lead fill


3)
Db--2----- riff       -2--4--3--2-- riff
Ab--2--5--  2)        -2--2--1--0--  2)
Eb--0--3--            -0----------- twice 
Let ring...........................
verse


4a)
Db--5h7-----7p5-----5h7-----7p5-----5h7-----7p5-----5h7-----7p5----
Ab--5h7-----7p5-----5h7-----7p5-----5h7-----7p5-----5h7-----7p5----
Eb------0-0-----0-0-----0-0-----0-0-----5-5-----5-5-----5-5-----5-5
       pm..     ...     ...     ...     ...     ...     ...     ...
4b)
Db--5h7-----7p5-----5h7-----7p5-----5h7-----7p5-----5h7-----7p5----
Ab--5h7-----7p5-----5h7-----7p5-----5h7-----7p5-----5h7-----7p5----
Eb------3-3-----3-3-----3-3-----3-3-----5-5-----5-5-----5-5-----5-5
       pm..     ...     ...     ...     ...     ...     ...     ...
4c)
Db--5h7-----7p5-----5h7-----7p5-----5h7-----7p5-----5h7-----7p5----
Ab--5h7-----7p5-----5h7-----7p5-----5h7-----7p5-----5h7-----7p5----
Eb------0-0-----0-0-----0-0-----0-0-----5-5-----5-5-----5-5-----5-5
       pm..     ...     ...     ...     ...     ...     ...     ...
4d)
Db--5h7-----7p5-----5h7-----7p5-----7h9-----9p7-----7h9-----9p7----
Ab--5h7-5-5-7p5-5-5-5h7-5-5-7p5-5-5-7h9-7-7-9p7-7-7-7h9-7-7-9p7----
Eb-----------------------------------------------------------------
       pm..     ...     ...     ...     ...     ...     ...     ...
Chorus riffs (all four)
This is tough to learn, especially since it's so fast, but this is how
Kirk plays it.


5)
Db--7-7--5----------7-7--5------
Ab--7-7--5----------7-7--5-----5
Eb---------0-0-0-0---------0-0-3
        pm......           ... ring

_______________________________________________________
Contribuição: Rafael Gumiela(rafaelgumiela@yahoo.com.br)
Composição de James Hetfield / Kirk Hammett / Lars Ulrich
26.366 exibições

0 comentários

Ver todos os comentários
00:00 / 00:00
outros vídeos desta música
repetir qualidade Automático
Outros vídeos desta música
00:00 / 00:00
Automático

Cifra Club Pro

Aproveite o Cifra Club com benefícios exclusivos e sem anúncios
Cifra Club Pro
Aproveite o Cifra Club com benefícios exclusivos e sem anúncios
OK