Cifra Club

Aprenda

Halo On Fire

Metallica

Cifra: Principal (violão e guitarra)
tom: G
James: 
E|---------------------------------------------------------------------------------------| 
B|---------------------------------------------------------------------------------------| 
G|---------------------------------------------------------------------------------------| 
D|----5--4--------4--3----5-4-5-4-5--------------5--4--------4--3----5-4-5-4---------4---| 
A|-2--3--2-2-2-2--2--1-2--3-2-------6br~(1/2)-2--3--2-2-2-2--2--1-2--3-2-----7-6~--7---7-| 
E|-0-------0-0-0-------0----------------------0-------0-0-0-------0----------------------| 
           . . .                                      . . . 

Kirk: 
E|------------------------------------------------------------------------------------------| 
B|------------------------------------------------------------------------------------------| 
G|------------------------------------------------------------------------------------------| 
D|----5--4--------4--3----5-4-9-7-9--------------5--4--------4--3----5-4-9-7-----------7----| 
A|-2--3--2-2-2-2--2--1-2--3-2-------9br~(1/2)-2--3--2-2-2-2--2--1-2--3-2-----10-9~--10---10-| 
E|-0-------0-0-0-------0----------------------0-------0-0-0-------0-------------------------| 
           . . .                                      . . . 
 
E|--------------------------------------| 
B|--------------------------------------| 
G|--------------------------------------| 
D|----12--9----12--9----12--9----12--9--| 
A|-2--10--7-2--10--7-2--10--7-2--10--7--| 
E|-0--------0--------0--------0---------| 

James: 
E|---------------------| 
B|---------------------| 
G|---------------------| 
D|-9s7-0-7s5-0-5s4-2~--| 
A|---------------------| 
E|---------------------| 

Kirk: 
E|------------------------| 
B|------------------------| 
G|-12s11-0-11s9-0-9s8-9~--| 
D|------------------------| 
A|------------------------| 
E|------------------------| 


repetir 6x
James: 
E|------------------------------------------------------------------| 
B|------------------------------------------------------------------| 
G|-----------------------------------------------------0-----0------| 
D|-----5-----5---------5-----5---------5-----5-------2-----2-----2--| 
A|---7-----7-----7---7-----7-----7---7-----7-----7-2-----1-----2----| 
E|-0-----7-----0---0-----7-----0---0-----7-----0--------------------| 

Kirk: 
E|------------------------------------------------------------------| 
B|-----8-----------------8----------------8-------------------------| 
G|---9-----------------------9-------9--------9---------------------| 
D|-9------------------9----------9-----------------9-----8-----9----| 
A|-----------------7------------------------------------------------| 
E|------------------------------------------------------------------| 

E|--------------| 
B|--------------| 
G|--------------| 
D|--------------| 
A|--------------| 
E|-7~---6~--7~--| 

Refrão: 

James: 
E|---------------------------------------------------------------------------------------| 
B|---------------------------------------------------------------------------------------| 
G|---------------------------------------------------------------------------------------| 
D|----5--4--------4--3----5-4-5-4-5--------------5--4--------4--3----5-4-5-4---------4---| 
A|-2--3--2-2-2-2--2--1-2--3-2-------6br~(1/2)-2--3--2-2-2-2--2--1-2--3-2-----7-6~--7---7-| 
E|-0-------0-0-0-------0----------------------0-------0-0-0-------0----------------------| 
           . . .                                      . . . 

Kirk: 
E|------------------------------------------------------------------------------------------| 
B|------------------------------------------------------------------------------------------| 
G|------------------------------------------------------------------------------------------| 
D|----5--4--------4--3----5-4-9-7-9--------------5--4--------4--3----5-4-9-7-----------7----| 
A|-2--3--2-2-2-2--2--1-2--3-2-------9br~(1/2)-2--3--2-2-2-2--2--1-2--3-2-----10-9~--10---10-| 
E|-0-------0-0-0-------0----------------------0-------0-0-0-------0-------------------------| 
           . . .                                      . . . 

James: 
E|------------------------------------------------------------------------| 
B|------------------------------------------------------------------------| 
G|------------------------------------------------------------------------| 
D|----5--4--------4--3----5-4-5-4-5--------------5--4--------4--3----5-4--| 
A|-2--3--2-2-2-2--2--1-2--3-2-------6br~(1/2)-2--3--2-2-2-2--2--1-2--3-2--| 
E|-0-------0-0-0-------0----------------------0-------0-0-0-------0-------| 
           . . .                                      . . . 

Kirk: 
E|------------------------------------------------------------------------| 
B|------------------------------------------------------------------------| 
G|------------------------------------------------------------------------| 
D|----5--4--------4--3----5-4-9-7-9--------------5--4--------4--3----5-4--| 
A|-2--3--2-2-2-2--2--1-2--3-2-------9br~(1/2)-2--3--2-2-2-2--2--1-2--3-2--| 
E|-0-------0-0-0-------0----------------------0-------0-0-0-------0-------| 
           . . .                                      . . . 


E|--------------------------------------| 
B|--------------------------------------| 
G|--------------------------------------| 
D|----12--9----12--9----12--9----12--9--| 
A|-2--10--7-2--10--7-2--10--7-2--10--7--| 
E|-0--------0--------0--------0---------| 

James: 
E|---------------------| 
B|---------------------| 
G|---------------------| 
D|-9s7-0-7s5-0-5s4-2~--| 
A|---------------------| 
E|---------------------| 

Kirk: 
E|------------------------| 
B|------------------------| 
G|-12s11-0-11s9-0-9s8-9~--| 
D|------------------------| 
A|------------------------| 
E|------------------------| 

2° verse & refrão são os mesmos do início. 
1° Solo: 


Kirk: 
E|---------------------------------------------------------------------------------------| 
B|----------------------------------------12-13~-12----/13-12~-----12~-------------------| 
G|-14b~--14b~-14b~-14br-12------12-14b~-------------14------------------14-12~--/14------| 
D|-------------------------14~----------------------------------14------------------14~--| 
A|---------------------------------------------------------------------------------------| 
E|---------------------------------------------------------------------------------------| 

Ponte: 

repetir 6x
E|----------------------------------------------------| 
B|----------------------------------------------------| 
G|----------------------------------------------------| 
D|----------------------------------------------------| 
A|-7s9-9-9-x-7s9-9-9-x-5s7-7-7-x-4s5------------------| 
E|-5s7-7-7-x-5s7-7-7-x-3s5-5-5-x-2s3-3-3-3-3-3-3-3-3--| 
                                     . . . . . . . . 

repetir 2x
E|----------------------------------------| 
B|----------------------------------------| 
G|----------------------------------------| 
D|----------------------------7-5~--4-----| 
A|-5-5-5--5-5-5--5-5-5--5-5-4---------7-5-| 
E|-3-3-3--3-3-3--3-3-3--3-3-2-------------| 

repetir 3x
E|-----------------------------------------------------| 
B|-----------------------------------------------------| 
G|-----------------------------------------------------| 
D|-----------------------------------------------------| 
A|-5-5-5--5-5-5--5-5-5--5-5-4--4--4--4--4--4--4--4--4--| 
E|-3-3-3--3-3-3--3-3-3--3-3-2--2--2--2--2--2--2--2--2--| 

(4:46 - 4:50) 
E|---------------------------------------| 
B|---------------------------------------| 
G|---------------------------------------| 
D|---------------------------------------| 
A|-2--2-2-2-2--2--2---2---2-2-2-2--2--2--| 
E|-0--0-0-0-0--0--0---0---0-0-0-0--0--0--| 
   .  . . . .  .  .   .   . . . .  .  . 

repetir 4x 
E|------------------------------------------| 
B|------------------------------------------| 
G|------------------------------------------| 
D|------------------------------------------| 
A|-2-2-4-5-2--4s5-2--2--2-2-4-5-2-5-4-3-4-5-| 
E|-0-0-2-3-0--2s3-0--0--0-0-2-3-0-3-2-1-2-3-| 
   . . . . .            . . . . . 

Parte Harmônica: 

Guitarra base repetir 3x: 
E|----------------------------------------| 
B|----------------------------------------| 
G|----------------------------------------| 
D|----------------------------7-5~--4-----| 
A|-5-5-5--5-5-5--5-5-5--5-5-4---------7-5-| 
E|-3-3-3--3-3-3--3-3-3--3-3-2-------------| 

James:                                             Kirk: 
                                     
E|---------------------------------------------|   e|---------------------------------------------| 
B|---------------------------------------------|   B|---------------------------------------------| 
G|---------------------------------------------|   G|-0-2h4~--0-4h6~--0-6h7~--0-7h9--7--/12-11----| 
D|-0-4h5~--0-5h7~--0-7h9~--0-9h10--9--/12-11---|   D|---------------------------------------------| 
A|---------------------------------------------|   A|---------------------------------------------| 
E|---------------------------------------------|   E|---------------------------------------------| 

E|---------------------------------------------|   e|-----------------------------------------------| 
B|---------------------------------------------|   B|----------------------------------------/13-12-| 
G|---------------------------------------------|   G|-0-6h7~--0-7h9~--0-11h12~---0-12h14~-12--------| 
D|-0-4h5~--0-5h7~--0-7h9~--0-9h10--9--/12-11---|   D|-----------------------------------------------| 
A|---------------------------------------------|   A|-----------------------------------------------| 
E|---------------------------------------------|   E|-----------------------------------------------| 

E|---------------------------------------------------| e|--------------------------------------------------| 
B|---------------------------------------------------| B|--------------------------------------------------| 
G|---------------------------------------------------| G|-0-11h12~--0-12h14~--0-14h16~--0-16h17~-16-/17-16-| 
D|-0-7h9~--0-9h10~--0-10h12~---0-12h14~--12--/17-16--| D|--------------------------------------------------| 
A|---------------------------------------------------| A|--------------------------------------------------| 
E|---------------------------------------------------| E|--------------------------------------------------| 

2° Solo: 

repetir 4x 

James: 
E|------------------------------------------| 
B|------------------------------------------| 
G|------------------------------------------| 
D|------------------------------------------| 
A|-2-2-4-5-2--4s5-2--2--2-2-4-5-2-5-4-3-4-5-| 
E|-0-0-2-3-0--2s3-0--0--0-0-2-3-0-3-2-1-2-3-| 
   . . . . .            . . . . . 

Kirk: 


E|-19p15---------------------------------------------19p15----------19p15--------- 19p15----------| 
B|-------16-------------------------12-14-14b-14-12--------16-------------16-------------16-------| 
G|----------14s12~------------------12-14-14b-14-12-----------14s12----------14s12----------14s12-| 
D|----------------------------12-14---------------------------------------------------------------| 
A|------------------/12-12-14---------------------------------------------------------------------| 
E|------------------------------------------------------------------------------------------------| 

E|------------------------------------------------------------------------------------------------| 
B|-16b-12-----------------------------------------------------------------------------------------| 
G|--------14-12-14p12~---------12----------------------------------------------------------12-----| 
D|-----------------------12h14----14~--14p12-14p12-12-14~--14p12-14p12-12-14~--14p12-14p12----14~-| 
A|------------------------------------------------------------------------------------------------| 
E|------------------------------------------------------------------------------------------------| 

E|----------------------------------------------------------------------------------| 
B|-------------------------------------------------12-------------------------------| 
G|-------12-14br(1/2)-14br(1/2)-14pbr-14pbr-14pbr-----12-12-12-14p12-------12-------| 
D|-12h14-------------------------------------------------------------14p12-----14~--| 
A|----------------------------------------------------------------------------------| 
E|----------------------------------------------------------------------------------| 

 
E|--------------------------------------| 
B|--------------------------------------| 
G|----12--9----12--9----12--9----12--9--| 
D|----12--9----12--9----12--9----12--9--| 
A|-2--10--7-2--10--7-2--10--7-2--10--7--| 
E|-0--------0--------0--------0---------| 

Clean Interlúdio :repetir 3x
 
E|---------------------------------------------------------------| 
B|---------------------------------------------------------------| 
G|-----0----0-------0-------0------------------------------0-----| 
D|---5----5---5---5---5---5---5--------------------------5---5---| 
A|----------------------3----------------------------------------| 
E|-3------------6--------------------------------------3---------| 

Outro: 


E|---------------------------------------------------------------| 
B|---------------------------------------------------------------| 
G|---------------------------------------------------------------| 
D|-7-7-7-7-7-7-7-7-7-7-7-7-7-7-7-7-7-7-7-7-7-7-7-7-5-5-5-5-5--5--| 
A|-5-5-5-5-5-5-5-5-5-5-5-5-5-5-5-5-5-5-5-5-5-5-5-5-3-3-3-3-3--3--| 
E|-5-5-5-5-5-5-5-5-5-5-5-5-5-5-5-5-5-5-5-5-5-5-5-5-3-3-3-3-3--3--| 

Kirk:
 
Melodia: 

repetir 4x 
E|---------------------------------------------------------------------------------------| 
B|---------------------------------------------------------------------------------------| 
G|---------------------------------------------------------------------------------------| 
D|--------------------------------10-----------------------------------------------------| 
A|-5-5-5-5s8-10-10s12~--5-5-5-5s8----10-10s12~--5-5-5-5s8-10-10s12~--10-10-10-8~-7---7br-| 
E|---------------------------------------------------------------------------------8-----| 

3° Solo: 


E|-----------------------------------------------------------------------------------| 
B|-------------------------------------------------------------------------------/10-| 
G|-------------------------------------------------------------10~-9----10~-9--------| 
D|--------10-----------------------10~-12-----10~-12-----10-12-------12-------12-----| 
A|-5~-/8----5~-8-10-5~-8-10-10s12~--------12~--------12~-----------------------------| 
E|-----------------------------------------------------------------------------------| 

 
E|----------------------------------------------------------------------------------------------------| 
B|----10--------------------------10\-----------------------------------------------------------------| 
G|-12----12-10-9-----9------------10\-----------------------------------------------------------------| 
D|---------------12~---10~--12-12------12~--10--10-12~--10--10-12~-10-12~--10--10-12~--10--10--12~-10-| 
A|----------------------------------------------------------------------------------------------------| 
E|----------------------------------------------------------------------------------------------------| 

E|--------------------------------------------------------------------------------------| 
B|-------------------------10-12-12b-12-10-----10---------------------------------------| 
G|-/10-12-12b--12pbrp10----10-12-12b-12-10-----10-----12b-12-10-------------------------| 
D|----------------------12-----------------12----12~------------12-10-------12-10-12-12-| 
A|--------------------------------------------------------------------12-10-------------| 
E|--------------------------------------------------------------------------------------| 

E|--------------------------------------------------------------------------------------------------| 
B|----10------------10------------------10-------------10-------------10-------------10-------------| 
G|----10------------10------------------10-------------10-------------10-------------10-------------| 
D|-12----10h12-x-12----10h12-12-12-x-12----12-10h12-12----12-10h12-12----12-10h12-12----12-10h12-12-| 
A|--------------------------------------------------------------------------------------------------| 
E|--------------------------------------------------------------------------------------------------| 

E|------------------------------------------------------------------------------------------| 
B|------------------------------------------------------------------------------------------| 
G|-10~-----10-12p10--12p10--12p10--12p10--14p10--12p10--12p10--14p10--12p10--12p10--14p10---| 
D|------12---------12-----12-----12-----12-----12-----12-----12-----12-----12-----12-----12-| 
A|------------------------------------------------------------------------------------------| 
E|------------------------------------------------------------------------------------------| 

 
E|-------------------------------------------------------------------------------------| 
B|-------------------------------------------------------------------------------------| 
G|-12brp10-----12brp10--12brp10----12brp10--12brp10--12brp10--12brp10-----13b-13pbrp10-| 
D|--------12p10-------12--------12--------12-------12-------12-------12p10-------------| 
A|-------------------------------------------------------------------------------------| 
E|-------------------------------------------------------------------------------------| 

 
E|----10---------10---------10---------10---------10---------10---------10---------10------| 
B|-13b--13-10-13b--13-10-13b--13-10-13b--13-10-13b--13-10-13b--13-10-13b--13-10-13b--13-10-| 
G|-----------------------------------------------------------------------------------------| 
D|-----------------------------------------------------------------------------------------| 
A|-----------------------------------------------------------------------------------------| 
E|-----------------------------------------------------------------------------------------| 

E|----------------------------------------------------------------------------------------------------| 
B|----10-13p10---10-13p10---10-13p10---10-13b10-10-10----------12-10-10-------------10-10-------------| 
G|-12b--------12b--------12b--------12b---------10-10----------12-10-10-------------10-10-------------| 
D|----------------------------------------------------12-10-------------12-10-------------12-10-------| 
A|----------------------------------------------------------12----------------12-10-------------12-10-| 
E|----------------------------------------------------------------------------------------------------| 

E|----------------------------------------------------| 
B|-10-10-12p10-------10-13~---13--13---10----13b-13b\-| 
G|-10-10-12p10-------10-12b~--12b-12br-10-12----------| 
D|-------------12-10----------------------------------| 
A|----------------------------------------------------| 
E|----------------------------------------------------| 


James: 
E|-------------------------------------| 
B|-------------------------------------| 
G|-------------------------------------| 
D|-7--------7--------7--------5--------| 
A|-5----3-3-5----3-3-5----3-3-3----3-3-| 
E|-5----3-3-5----3-3-5----3-3-3----3-3-| 

Kirk: 

E|-----------------------------------------------------------------------------------------| 
B|-----------------------------------------------------------------------------------------| 
G|-----------------------------------------------------------------------------------------| 
D|--------------------------------10---------------------------------12~--10~-9---9br--12br| 
A|-5-5-5-5s8-10-10s12~--5-5-5-5s8----10-10s12~--5-5-5-5s8-10-10s12~------------10----------| 
E|-----------------------------------------------------------------------------------------| 

*FIM 
E|-----------------------------| 
B|-----------------------------| 
G|-----------------------------| 
D|-7--10-7-7--10-7-7--10-7-7\--| 
A|-5--8--5-5--8--5-5--8--5-5\--| 
E|-5--8--5-5--8--5-5--8--5-5\--|
Composição de James Hetfield / Lars Ulrich
Colaboração e revisão:
  • Gabriel Lira
3.636 exibições
    • ½ Tom
    • A
    • Bb
    • B
    • C
    • Db
    • D
    • Eb
    • E
    • F
    • F#
    • G
    • Ab
  • Adicionar à lista

    0 comentários

    Ver todos os comentários

    Conseguiu tocar?

    1 Tocaram 0 Ainda não

    Grave um vídeo tocando Halo On Fire e nos envie!

    00:00 / 00:00
    outros vídeos desta música
    repetir qualidade Automático
    Outros vídeos desta música
    00:00 / 00:00
    Automático

    Cifra Club Pro

    Aproveite o Cifra Club com benefícios exclusivos e sem anúncios
    Cifra Club Pro
    Aproveite o Cifra Club com benefícios exclusivos e sem anúncios
    OK