Cifra Club

Aprenda

Here Comes Revenge

Metallica

Cifra: Principal (violão e guitarra)
tom: F
-Intro:



Guit. 1 (James):



Riff 1 (4x):



PM  .   .         .   .

E|--3---1---------3---1---0~
A|--5---3----1----5---3---2~
G|-----------3--------------
D|--------------------------
B|--------------------------
E|--------------------------


PM  .   .           .   .

E|--3---1-----------3---1---0~
A|--5---3---1--1----5---3---2~
G|----------3--3--------------
D|----------------------------
B|----------------------------
E|----------------------------



Riff 2 (2x):



PM  .  .       .  .       .       .     

E|--0--0---7---0--0---7---0--5/6--0--6-
A|---------9----------9------7/8-----8-
G|-------------------------------------
D|-------------------------------------
B|-------------------------------------
E|-------------------------------------


PM  .  .       .        .    

E|--0--0---6---0--3/5---0--5-
A|---------8------5/7------7-
G|---------------------------
D|---------------------------
B|---------------------------
E|---------------------------


PM  .  .      .

E|--0--0---5--0--3-
A|---------7-----5-
G|-----------------
D|-----------------
B|-----------------
E|-----------------


PM

E|--0--0--3--0----------3--1-
A|---------------1--1--------
G|---------------3--3--------
D|---------------------------
B|---------------------------
E|---------------------------



Guit. 2 (Kirk):



Riff 1 (2x):



PM  .   .         .   .     

E|--3---1---------3---1---0~
A|--5---3----1----5---3---2~
G|-----------3--------------
D|--------------------------
B|--------------------------
E|--------------------------


PM  .   .           .   .

E|--3---1-----------3---1---0~
A|--5---3---1--1----5---3---2~
G|----------3--3--------------
D|----------------------------
B|----------------------------
E|----------------------------



Riff 2(pt.1)(2x):



PM  .   .         .   .          .  .     .       .

E|--3---1---------3---1---0~--7--0--0--7--0--5/6--0-
A|--5---3----1----5---3---2~--9--------9-----7/8----
G|-----------3--------------------------------------
D|--------------------------------------------------
B|--------------------------------------------------
E|--------------------------------------------------


PM  .   .           .   .          .  .     .       .

E|--3---1-----------3---1---0~--7--0--0--7--0--5/6--0-
A|--5---3---1--1----5---3---2~--9--------9-----7/8----
G|----------3--3--------------------------------------
D|----------------------------------------------------
B|----------------------------------------------------
E|----------------------------------------------------



Riff 2(pt.2):



PM  .   .         .   .

E|--3---1---------3---1---0~
A|--5---3----1----5---3---2~ 
G|-----------3--------------
D|--------------------------
B|--------------------------
E|--------------------------



Riff 3: O Riff 3 de Kirk é o riff 2 de James, que serão tocados juntos.



-Parte 1 (2x)(Guit 1 e 2):



PM    . . . .    . . . .

E|--0-0-0-0-0--0-0-0-0-0--0---5/7---------7------7-------
A|--2----------2----------2--------10-10-----10-----9/10~
D|--2----------2----------2------------------------------
G|-------------------------------------------------------
B|-------------------------------------------------------
E|-------------------------------------------------------



PM    . . . .    . . . .

E|--0-0-0-0-0--0-0-0-0-0--0--------6-5-6-5--3-
A|--2----------2----------2---3/5-------------
D|--2----------2----------2-------------------
G|--------------------------------------------
B|--------------------------------------------
E|--------------------------------------------


Variação:


PM      .  .  .

E|------3--2--3----
A|--2---5--4--5--5-
D|--4------------7-
G|-----------------
B|-----------------
E|-----------------




PM    . . . .    . . . .  

E|--0-0-0-0-0--0-0-0-0-0--0---5/7---------7------7-------
A|--2----------2----------2--------10-10-----10-----9/10~
D|--2----------2----------2------------------------------
G|-------------------------------------------------------
B|-------------------------------------------------------
E|-------------------------------------------------------


PM    . . . .    . . . .

E|--0-0-0-0-0--0-0-0-0-0--0--------6-5-6-5--3~--0~
A|--2----------2----------2---3/5---------------2~
D|--2----------2----------2---------------------2~
G|------------------------------------------------
B|------------------------------------------------
E|------------------------------------------------

-Parte 2(Guit.1):

E|--3~----------3-2~------
A|-----1~------------0~---
D|--------0~~-----------0~
G|------------------------
B|------------------------
E|------------------------(2x)

E|--3~----------------2~---------------
A|-----0--1-----1--0-----0--1-----1--0~
D|-----------0~----------------0~------
G|-------------------------------------
B|-------------------------------------
E|-------------------------------------(2x)


Pré-refrão(Guit. 1 e 2):



PM     .  .     .  .     .     .  .     .  .     .

E|--3--3--3--3--3--3--3--3--3--3--3--3--3--3--3--3
A|--1--------1--------1-----1--------1--------1---
D|------------------------------------------------
G|------------------------------------------------
B|------------------------------------------------
E|------------------------------------------------



PM                         .  .  .  .  

E|-------6--5--6--5--3-----6--5--6--5--3-
A|--4/5-----------------5~-8--7--8--7--5-
D|----------------------7~---------------
G|---------------------------------------
B|---------------------------------------
E|---------------------------------------



PM    . . . .    . . . .  

E|--0-0-0-0-0--0-0-0-0-0--0---5/7---------7------7-------
A|--2----------2----------2--------10-10-----10-----9/10~
D|--2----------2----------2------------------------------
G|-------------------------------------------------------
B|-------------------------------------------------------
E|-------------------------------------------------------



PM    . . . .    . . . .

E|--0-0-0-0-0--0-0-0-0-0--0--------6-5-6-5--3~--
A|--2----------2----------2---3/5---------------
D|--2----------2----------2---------------------
G|----------------------------------------------
B|----------------------------------------------
E|----------------------------------------------



PM    . . . .    . . . .  

E|--0-0-0-0-0--0-0-0-0-0--0---5/7---------7------7-------
A|--2----------2----------2--------10-10-----10-----9/10~
D|--2----------2----------2------------------------------
G|-------------------------------------------------------
B|-------------------------------------------------------
E|-------------------------------------------------------



PM    . . . .    . . . .         .  .  .  .

E|--0-0-0-0-0--0-0-0-0-0--0------3--2--3--2----
A|--2----------2----------2---2--5--4--5--4--5-
D|--2----------2----------2---4--------------7-
G|---------------------------------------------
B|---------------------------------------------
E|---------------------------------------------


-Refrão(Guit 1 e 2):

Parte 1(2x):



PM    . . . .    . . . .    . . . .    . . . .    . .

E|--0-0-0-0-0--0-0-0-0-0--0-0-0-0-0--0-0-0-0-0--0-0-0--1-
A|--2----------2----------2----------2----------2------3-
D|--2----------2----------2----------2----------2------3-
G|-------------------------------------------------------
B|-------------------------------------------------------
E|-------------------------------------------------------



PM    . . . .    . . . .    . . . .    . . . .

E|--0-0-0-0-0--0-0-0-0-0--0-0-0-0-0--0-0-0-0-0--3--3--3-
A|--2----------2----------2----------2----------5--5--5-
D|--2----------2----------2----------2----------5--5--5-
G|------------------------------------------------------
B|------------------------------------------------------
E|------------------------------------------------------


Parte 2:



PM    . . . .    . . . .     . . . .    . .    . .

E|--0-0-0-0-0--0-0-0-0-0-----0-0-0-0----0-0----0-0---
A|--2----------2----------1~---------1------1------1-
D|--2----------2----------3~---------3------3------3-
G|---------------------------------------------------
B|---------------------------------------------------
E|---------------------------------------------------



PM    . . . .    . . . .    . . . .    . . . .

E|--0-0-0-0-0--0-0-0-0-0--0-0-0-0-0--0-0-0-0-0--3--3--3-
A|--2----------2----------2----------2----------5--5--5-
D|--2----------2----------2----------2----------5--5--5-
G|------------------------------------------------------
B|------------------------------------------------------
E|------------------------------------------------------



PM    . . . .    . . . .     . . . .    . .    . .

E|--0-0-0-0-0--0-0-0-0-0-----0-0-0-0----0-0----0-0---
A|--2----------2----------1~---------1------1------1-
D|--2----------2----------3~---------3------3------3-
G|---------------------------------------------------
B|---------------------------------------------------
E|---------------------------------------------------



PM    . . . .    . . . .    . . . .    . . . .

E|--0-0-0-0-0--0-0-0-0-0--0-0-0-0-0--0-0-0-0-0--3--3--3-
A|--2----------2----------2----------2----------5--5--5-
D|--2----------2----------2----------2----------5--5--5-
G|------------------------------------------------------
B|------------------------------------------------------
E|------------------------------------------------------



PM  .  .  . 

E|--3--3--3--3--3--3--------------------
A|--5--5--5--5--5--5---8---10--8---5--7-
D|--5--5--5--5--5--5---10--12--10--7--9-
G|--------------------------------------
B|--------------------------------------
E|--------------------------------------


Repete-se o fim da parte 1 em diante. 

Após repetir essas partes segue:



-Interlúdio:

Parte 1(Guit. 1 e 2):



PM    . . . .    . . . .  

E|--0-0-0-0-0--0-0-0-0-0--0---5/7---------7------7-------
A|--2----------2----------2--------10-10-----10-----9/10~
D|--2----------2----------2------------------------------
G|-------------------------------------------------------
B|-------------------------------------------------------
E|-------------------------------------------------------



PM    . . . .    . . . .

E|--0-0-0-0-0--0-0-0-0-0--0--------6-5-6-5--3~--0~
A|--2----------2----------2---3/5---------------2~
D|--2----------2----------2---------------------2~
G|------------------------------------------------
B|------------------------------------------------
E|------------------------------------------------

E|--5--0~--5---0--3--5--6--5--3--0--3-
A|-----2~-----------------------------
D|-----2~-----------------------------
G|------------------------------------
B|------------------------------------
E|------------------------------------



Parte 2(Guit 1):



E|--0-------7------7\---0--3--5--6--5--3--0--3-
A|-----10~-----10~-----------------------------
D|---------------------------------------------
G|---------------------------------------------
B|---------------------------------------------
E|---------------------------------------------

E|--0-------7------7\
A|-----10~-----10~---
D|-------------------
G|-------------------
B|-------------------
E|-------------------

E|--0--3--5--6--5--3--0--3---0--3--5--6--5--3--0--3-
A|--------------------------------------------------
D|--------------------------------------------------
G|--------------------------------------------------
B|--------------------------------------------------
E|--------------------------------------------------


PM                          .  .  .  .  .  .  .  .  

E|--0--3--5--6--5--3--0--3--0--3--5--6--5--3--0--3--0~
A|--------------------------2--5--7--8--7--5--2--5--2~
D|----------------------------------------------------
G|----------------------------------------------------
B|----------------------------------------------------
E|----------------------------------------------------


Parte 2(Guit.2):



E|--0-------7------7\---0--3--5--6--5--3--0--3-
A|-----10~-----10~-----------------------------
D|---------------------------------------------
G|---------------------------------------------
B|---------------------------------------------
E|---------------------------------------------

E|--0-------7------7\
A|-----10~-----10~---
D|-------------------
G|-------------------
B|-------------------
E|-------------------

E|----------------------
A|--7---------------7---
D|----5--7--8--7--5---5-
G|----------------------
B|----------------------
E|----------------------(2x)

E|----------------------------------
A|----------------------------------
D|--14----------------14----14~-----
G|-----12-14-15-14-12----12---------
B|-------------------------------19~
E|----------------------------------

-Solo:

Enquanto Kirk toca o solo, James toca o refrão como base.


Parte 1:



E|-----------------------------------------------------
A|-----------------------------------------------------
D|--14---14---14\\--14---14---12--14------14~----14----
G|--14---14---14\\--14---14-----------12------12----12-
B|-----------------------------------------------------
E|-----------------------------------------------------

E|----------------------------
A|----------------------------
D|--x-x--12--x-x--12--x-x--12-
G|--x-x--12--x-x--12--x-x--12-
B|----------------------------
E|----------------------------

E|-------------------------------------------------------------------
A|-------------------------------------------------------------------
D|------------------14--------------------14-------------------14----
G|--14b16r14--14-12----12-14b16r14--14-12----12-14b16r14-14-12----12-
B|-------------------------------------------------------------------
E|-------------------------------------------------------------------

E|---------------------------------------
A|---------------------------------------
D|------------------14----------14-12----
G|--14b16r14--14-12----12-14-12-------12-
B|---------------------------------------
E|---------------------------------------

E|------------------------------------------------------------
A|------------------------------------------------------------
D|--14b16--14b16--------14------------------------------------
G|--14b16--14b16--14-12----12-14---14b16r14-12----12-----12\\-
B|---------------------------------14b16r14----14----14--12\\-
E|------------------------------------------------------------

E|--------------------------------------------------
A|--------------------------------------------------
D|--------------------------------------14-12-12-14-
G|--14b16~---------15----15-14-12-14-12-------------
B|--------12-15-12----12----------------------------
E|--------------------------------------------------

E|--------------------------------------------------
A|--------------------------------------------------
D|--------------------------------------14-12-12-14-
G|--14b16~---------15----15-14-12-14-12-------------
B|--------12-15-12----12----------------------------
E|--------------------------------------------------

E|--------------------------------------------------
A|--------------------------------------------------
D|--14-------------------14----------------------14-
G|-----12-14-15----15-14----12-14-15----15-14-12----
B|--------------12-------------------12-------------
E|--------------------------------------------------

E|-----------------------------------------
A|--------------------------------14-12-10-
D|--14----------------------14-12----------
G|-----12-14-15----15-14-12----------------
B|--------------12-------------------------
E|-----------------------------------------

E|--------------------------------
A|--------------------------------
D|---------------14---------------
G|--14b16r14--12----12--14--14b16-
B|--14b16r14--12----12--14--14b16-
E|--------------------------------

E|---------------------------
A|---------------------------
D|---------------14-12-------
G|--14b16r14--12----------12-
B|--14b16r14--12----------12-
E|---------------------------

E|--------------------------------------------------------
A|--------------------------------------------------------
D|--------------------------------------------------------
G|--14b16----------------------14-------------------14----
B|--------12----15-12-15b17r15----12----12-15b17r15----12-
E|-----------12----------------------12-------------------

E|---------------------------------
A|---------------------------------
D|---------------------------------
G|------------------14-------------
B|-----12-15br17r15----12----------
E|--12--------------------15b17-15-

E|-----------------------------------
A|-----------------------------------
D|--7-7-7-7-7-7-7-7--9-9-9-9-9-9-9-9-
G|-----------------------------------
B|--5-5-5-5-5-5-5-5--7-7-7-7-7-7-7-7-
E|-----------------------------------

E|--------------------------------
A|--------------------------------
D|--9-9-9-9-9-9-9-9-9-9-9-9-9-9-9-
G|--------------------------------
B|--7-7-7-7-7-7-7-7-7-7-7-7-7-7-7-
E|--------------------------------


Parte 5:


Guit.1:



E|--0--3--5--6--5--3--0--3--
A|--------------------------
D|--------------------------
G|--------------------------
B|--------------------------
E|--------------------------(4x)

E|-------6--5--6--5--3-------6--5--6--5--3~
A|--4/5-----------------4/5----------------
D|-----------------------------------------
G|-----------------------------------------
B|-----------------------------------------
E|-----------------------------------------


PM     .  .  .  .

E|-----3--2--3--2----
A|--2--5--4--5--4--5-
D|--4--------------7-
G|-------------------
B|-------------------
E|-------------------


Guit.2:



E|--0--3--5--6--5--3--0--3--
A|--------------------------
D|--------------------------
G|--------------------------
B|--------------------------
E|--------------------------(2x)

E|----------------------
A|--7---------------7---
D|----5--7--8--7--5---5-
G|----------------------
B|----------------------
E|----------------------(2x)

E|-----------------------------
A|-----------------------------
D|------8-7-8-7-5----8-7-8-7-5-
G|--6/7------------7-----------
B|-----------------------------
E|-----------------------------


PM     .  .  .  .

E|-----3--2--5--2----
A|--2--5--4--3--4--5-
D|--4--------------7-
G|-------------------
B|-------------------
E|-------------------


Final (Guit. 1 e 2):




E|--0--3--5--6--5--3--0--3---0--3--5--6--5--3--0--3-
A|--------------------------------------------------
D|--------------------------------------------------
G|--------------------------------------------------
B|--------------------------------------------------
E|--------------------------------------------------


PM                          .  .  .  .  .  .  .  .  

E|--0--3--5--6--5--3--0--3--0--3--5--6--5--3--0--3--0~
A|--------------------------2--5--7--8--7--5--2--5--2~
D|----------------------------------------------------
G|----------------------------------------------------
B|----------------------------------------------------
E|----------------------------------------------------

E|--0-------7------7\---0--3--5--6--5--3--0--3-
A|-----10~-----10~-----------------------------
D|---------------------------------------------
G|---------------------------------------------
B|---------------------------------------------
E|---------------------------------------------(4x)


PM  .       .   

E|--0---3---0---3---0---0--3--5--6--5--3--0--3-
A|------5-------5---2--------------------------
D|------5-------5------------------------------
G|---------------------------------------------
B|---------------------------------------------
E|---------------------------------------------(3x)



PM  .       .   

E|--0---3---0---3---0---0--3--5--6--5--3--0--3--0~
A|------5-------5---2---------------------------2~
D|------5-------5-------------------------------2~
G|------------------------------------------------
B|------------------------------------------------
E|------------------------------------------------



PM  .   .         .   .

E|--3---1---------3---1---0~
A|--5---3----1----5---3---2~
G|-----------3--------------
D|--------------------------
B|--------------------------
E|--------------------------


PM  .   .           .   .

E|--3---1-----------3---1---0~
A|--5---3---1--1----5---3---2~
G|----------3--3--------------
D|----------------------------
B|----------------------------
E|----------------------------
Composição de James Hetfiled / Lars Ulrich
Colaboração e revisão:
  • Pentelho Lapa
  • Pedro Henrique
1.082 exibições
    • ½ Tom
    • A
    • Bb
    • B
    • C
    • Db
    • D
    • Eb
    • E
    • F
    • F#
    • G
    • Ab
  • Adicionar à lista

    0 comentários

    Ver todos os comentários

    Conseguiu tocar?

    0 Tocaram 1 Ainda não

    Grave um vídeo tocando Here Comes Revenge e nos envie!

    00:00 / 00:00
    outros vídeos desta música
    repetir qualidade Automático
    Outros vídeos desta música
    00:00 / 00:00
    Automático

    Cifra Club Pro

    Aproveite o Cifra Club com benefícios exclusivos e sem anúncios
    Cifra Club Pro
    Aproveite o Cifra Club com benefícios exclusivos e sem anúncios
    OK