Cifra Club

Aprenda

Kirk Solo Nimes

Metallica

Cifra: Principal (violão e guitarra)
tom: C (forma dos acordes no tom de C#) Afinação: Eb Ab Db Gb Bb Eb
E|-------------------------------------------------------------------0~-|
B|-------------------------------------------------------------------0~-|
G|-------------------------------------------------------------------0~-|
D|-0h2p0h2p0h2p0h2p0h2p0h2p0h2p0h2p0h2p0h2p0h2p0h2p0h2p0h2p0---------2~-|
A|-------------------------------------------------------------------2~-|
E|-----------------------------------------------------------0~~~~~~-0~-|

E|---------------------------------------------|
B|-----------------------------1------3------5-|
G|-----0-------0--------0----------------------|  (2x)
D|---2-------4--------5------2/-----4/-----5---|
A|-------------------------3/-----5/-----7-----|
E|-0-------0-------(0)-------------------------|

E|---3----------3----------------------0--------------0-------|  |
B|---3------------3-------3--------------3-------3------3-----|  |
G|---4--4----4------4---4---4---4---4------4--------------4---|  |
D|---5--5--5----------5---------4-4----------4-4---4--------4-|  |
A|-5-5--------------------------------------------------------|  |
E|------------------------------------------------------------|  |
                                                                 |
E|---------0-----------0----------|                              |
B|-----3------3----3------3-------|                              |
G|-4-----4-----------4------4-----|                              |
D|-3-3----------3-------------3/2-|                              |
A|--------------------------------|                              |
E|--------------------------------|                              |
                                                                 |
E|-------------------------------------|                         |
B|-------------------------------------|                         |
G|-------2-5-3-2---2-3--2h3p2---2------|                         |
D|-2-3-5---------5------------5---3-5--|                         |
A|-------------------------------------|                         |
E|-------------------------------------|                         |

E|-------------3-----------3------------6-------------6------|
B|---------------3-------3-------6--------6-------6-----6----|
G|-3----4----4-----4---4------4--7----7-----7---7---7-----7--|
D|---5--5--5---------5-----------8--8--------(8)-------------|
A|-------------------------------x---------------------------|
E|-----------------------------------------------------------|

E|----------1-------------1-----------0-------------3---3---------|
B|--------1---1-------1-----1-----1-----1-----------3-----3-------|
G|-2--2-2-------2---2---2--(2)p0--0-------0---------0-------0---0-|
D|-3--------------3--------(3)p0--2-2--------(2)p0--0-0-------0---|
A|--------------------------------3----------(3)p0--2-------------|
E|--------------------------------------------------3-------------|

E|------2-2h3-2------2-2h3-2---------0---0---0----0----0----0---0---0-|
B|-3--3---------3------------3---5--5---7---8---10---12---10---8---7--|
G|-2--------------2------------2--------------------------------------|
D|-0------------------------------------------------------------------|
A|--------------------------------------------------------------------|
E|--------------------------------------------------------------------|

E|-0---0---0---0---0-----0---0-----0---0-----0---0---0---0---0---|
B|-5/7-7/5-5/8-8/5-5/10-10/5-5/12-12/5-5/10-10/5-5/8-8/5-5/7-7/5-|
G|---------------------------------------------------------------|
D|---------------------------------------------------------------|
A|---------------------------------------------------------------|
E|---------------------------------------------------------------|

E|---0---0---0---0---0---0-|
B|-5---5---5---5---5---5---|
G|-------------------------|
D|-------------------------|
A|-------------------------|
E|-------------------------|

E|--0~~~~~-|
B|--0~~~~~-|
G|--0~~~~~-|
D|--2~~~~~-|
A|--2~~~~~-|
E|--0~~~~~-|

Colaboração e revisão:
  • Daniel Cordeiro
6.683 exibições
    • ½ Tom
    • A
    • Bb
    • B
    • C
    • Db
    • D
    • Eb
    • E
    • F
    • F#
    • G
    • Ab
  • Adicionar à lista

    0 comentários

    Ver todos os comentários

    Conseguiu tocar?

    2 Tocaram 0 Ainda não

    Grave um vídeo tocando Kirk Solo Nimes e nos envie!

    00:00 / 00:00
    outros vídeos desta música
    repetir qualidade Automático
    Outros vídeos desta música
    00:00 / 00:00
    Automático

    Cifra Club Pro

    Aproveite o Cifra Club com benefícios exclusivos e sem anúncios
    Cifra Club Pro
    Aproveite o Cifra Club com benefícios exclusivos e sem anúncios
    OK