Cifra Club

Aprenda

Lords Of Summer

Metallica

Cifra: Principal (violão e guitarra)
tom: D
(RIFF 1)
E|-------------------------------
B|-------------------------------
G|-------------------------------
D|-0-0-0---0-0-0---0-0-2---0-0-0-
A|-5-4-4---5-4-4---5-4-4---5-2-2-
E|-3-2-2---3-2-2---3-2-2---3-2-2- (4x)


(RIFF 2)
E|-----------------------
B|-----------------------
G|-----------------------
D|-----4-----------4-----
A|-----------------------
E|-2-2---2-2-0-2-2---2-2- (16X)


(RIFF 3)
E|----------------------------
B|----------------------------
G|----------------------------
D|-----2-----2-----2-----2----
A|-----2-----2-----2-----2----
E|-0-0-0-0-0-0-0-0-0-0-0-0----

(RIFF 4)
E|------------------------------------------------
B|------------------------------------------------
G|------------------------------------------------
D|-----------------------------4-----------4------
A|-----2-----2-----2-----2------------------------
E|-0-0-0-0-0-0-0-0-0-0-0-0-2-2---2-2-0-2-2---2-2-- (2X)

E|--------------------------------------
B|--------------------------------------
G|--------------------------------------
D|------------------------------5-5-4-4-
A|-----2-----2-----2-----2------3-3-2-2-
E|-0-0-0-0-0-0-0-0-0-0-0-0-2-2----------(

E|-----------------------
B|-----------------------
G|-----------------------
D|-----4-----------4-----
A|-----------------------
E|-2-2---2-2-0-2-2---2-2-(3X)

(RIFF 5)
E|-----------------------------------------------------------------------------------------------
B|-----------------------------------------------------------------------------------------------
G|-----------------------------------------------------------------------------------------------
D|---------------------5-4-0---------------------5-4-0-2-------------------5-4-0-----------------
A|-4-------------------3-2-0-4-------------------3-2-0-2-------------------3-2-0-4---------------
E|-2-2-2-2-2-2-2-2-2-2-------2-2-2-2-2-2-2-2-2-2-------0-0-0-0-0-0-0-0-0-0-------2-2-2-2-2-2-2-2-
(2X)

(RIFF 4)

(RIFF 6)
E|-------------------------------------
B|-------------------------------------
G|-------------------------------------
D|-------5-4-------2-------0-----------
A|-4-4-4-3-2-4-4-4-0-4-4-4-2-----------
E|-2-2-2-----2-2-2---2-2-2-------------

(RIFF 3)

E|--------------------
B|--------------------
G|--------------------
D|-5-5-4-4------------
A|-3-3-2-2------------
E|--------------------

(RIFF 2)

(RIFF 5)

(RIFF 4)(2X)

(RIFF)
Composição de James Hetfield / Lars Ulrich
Colaboração e revisão:
  • Igor Graciano
2.554 exibições
    • ½ Tom
    • A
    • Bb
    • B
    • C
    • Db
    • D
    • Eb
    • E
    • F
    • F#
    • G
    • Ab
  • Adicionar à lista

    0 comentários

    Ver todos os comentários

    Conseguiu tocar?

    3 Tocaram 0 Ainda não

    Grave um vídeo tocando Lords Of Summer e nos envie!

    00:00 / 00:00
    outros vídeos desta música
    repetir qualidade Automático
    Outros vídeos desta música
    00:00 / 00:00
    Automático

    Cifra Club Pro

    Aproveite o Cifra Club com benefícios exclusivos e sem anúncios
    Cifra Club Pro
    Aproveite o Cifra Club com benefícios exclusivos e sem anúncios
    OK