Enviar cifraEntrar

Master of Puppets - Primeiro Solo

Metallica

Cifra: Principal
exibições 76.553
Tom: G

E|-----------------------------0h2p0-----3----------------------------------|
A|------------0---------3------------3--------------3-------3---------------|
D|-------------------2-----2-----------2---------0-----0-------0------------|
G|------2---------0-----------------------------------------------2---------|
B|----2--------------------------------------3------------------------------|
E|--0-----------------------------------------------------------------------|


E|--------------------------------------------------------------0h2p0------3|
A|-------0-----------0-----------0--------------0---------3-----------3-----|
D|----2-----------2-----------2------------------------2-----2-----------2--|
G|-------------------------1-----------------2------0-----------------------|
B|-0--------0--2--------2-----------------2---------------------------------|
E|----------------------------------3--0------------------------------------|


E|--------------------------------------------------------------------------|
A|--------3-----3--------0--------0-----------0-----------0------------0----|
D|-----0-----0-----0-----------2-----------2-----------2------------2-------|
G|--------------------2------------------------------------------1----------|
B|-3------------------------0--------0--2--------0--2--------2--------------|
E|------------------------------------------------------------------------3-|


E|----19--15----17--14----------------17--14----15--12-------------15--12---|
A|-17--------17---------15---15-15-15--------15--------13--13-13-13-------13|
D|--------------------------------------------------------------------------|
G|--------------------------------------------------------------------------|
B|--------------------------------------------------------------------------|
E|--------------------------------------------------------------------------|


E|-14--12h14p12------------------------------------12--12b14---15-----------|
A|---------------16--13--12--13--13b15--13----16----------------------------|
D|--------------------------------------------------------------------------|
G|--------------------------------------------------------------------------|
B|--------------------------------------------------------------------------|
E|--------------------------------------------------------------------------|


E|------------14---15---14-15-17-15-14-19-15-12h15p12-----------------------|
A|-17~~~~~-17-----------------------------------------13~~~~-15b17b15b17b15-|
D|--------------------------------------------------------------------------|
G|--------------------------------------------------------------------------|
B|--------------------------------------------------------------------------|
E|--------------------------------------------------------------------------|


E|-15-14----15-14-----------------------------------------------------------|
A|-------12------12(15)12---------------------------------------------------|
D|------------------------12-14-14(16)14-(14)-(16)-(14)-13--12--------------|
G|------------------------------------------------------------14-14~~~---12-|
B|--------------------------------------------------------------------------|
E|--------------------------------------------------------------------------|


E|--------------------------------------------------------------15-12----14-|
A|---------------------------------------------------------12---------13----|
D|-12--14-12-11----14-12-11h12p11---------------------1112---12-------------|
G|--------------12----------------10-----9-1012101214-----------------------|
B|------------------------------------12------------------------------------|
E|--------------------------------------------------------------------------|


e|12h14p12---------------------------------12--12/14--15-|------------------|
A|---------16--13--12--13--13/15--13---16----------------|------------------|
D|-------------------------------------------------------|------------------|
G|-------------------------------------------------------|------------------|
B|-------------------------------------------------------|------------------|
E|-------------------------------------------------------|------------------|


|----12-14-15----14-15-17-15-14-----19-15-12-|------------15-14-----15-14----------------|
|17s-----------------------------------------|13---15b15b---------12--------12h15p12-----|
|--------------------------------------------|-------------------------------------------|
|--------------------------------------------|-------------------------------------------|
|--------------------------------------------|-------------------------------------------|
|--------------------------------------------|-------------------------------------------|


|--------------------------------------------|-------------------------------------------|
|-------15-----------------------------------|-------------------------------------------|
|12--14b----12--9-----7--12----14-12-11--7---|14-12-11-12h11--5--------------------------|
|--------------------------------------------|-------------------------------------------|
|--------------------------------------------|-------------------------------------------|
|--------------------------------------------|-------------------------------------------|


|--------------------------------------------|15-14-12p11---------------s19--------------|
|--------------------------------------------|--------------12--10-----------17----------|
|-----------------------------------12-14-12-|-------------------------------------------|
|7-9-10----9-10-12-10-9------12s14-----------|-------------------------------------------|
|--------------------------------------------|-------------------------------------------|
|--------------------------------------------|-------------------------------------------|
  • 1
  • 2
  • 3
  • 4
  • 5
  • 6
  • 7
  • 8
  • 9
  • 10
  • 11
  • 12
    Acordes para:
      Colaboração e revisão:
      • matheushetfield
      • Luís

      0 comentários

        mostrar mais comentários

        Conseguiu tocar?

        9tocaram0ainda não

        Grave um vídeo tocando Master of Puppets - Primeiro Solo e mande pra gente!

        00:00 / 00:00
        outros vídeos desta música
        repetirqualidadeautomática
        • automática
        Outro vídeos desta música
          00:00 / 00:00
          automática
          • automática
          Acordes para:violão e guitarra
          dificuldadeexibiçõescontribuições
          fecharplay/pause subir/descer velocidade
            acordes
            fechar
            OK
            Feedback