Enviar cifraEntrar

Master Of Puppets

Metallica

Tab de baixo: Principal
exibições 60.827
Introdução 

Parte 01 de 06

G|----------------------------------------------|
D|----------------------------------------------|
A|----5-4-3--------5-4-3-----5-4-3------5-4-3---|
E|-0--------0--0-0-------0-0--------0-0---------|

G|----------------------------------------------|
D|----------------------------------------------|
A|-3-3-3-3--3-3-3-3--3-3-3--3-3-3---------------|
E|---------------------------------0------------|

G|----------------------------------------------|
D|----------------------------------------------|
A|----------------------------------------------|
E|-3p2--3p2--3p2--0--3p2--3p2--3p2--------------|

Parte 02 de 06

G|----------------------------------------------|
D|----------------------------------------------|
A|----------------------------------------------|
E|-0-0-0-0--0-0-0-0--0-0-0-0--0-0-0-0-----------|

G|----------------------------------------------|
D|----------------------------------------------|
A|------------------------------2---------------|
E|-0-0-0-0--0-0-0-0--0-0-0-0--0-----------------|

Parte 03 de 06

G|----------------------------------------------|
D|----------------------------------------------|
A|----------------------------------------------|
E|-0-0-0-0--0-0-0-0--0-0-0-0--0-0-0-0-----------|

G|----------------------------------------------|
D|----------------------------------------------|
A|----------------------------------------------|
E|-0-0-0-0--0-0-0-0--3p2--3p2--3p2--------------|

Parte 04 de 06

G|----------------------------------------------|
D|----------------------------------------------|
A|----------------------------------------------|
E|-0-0-0-0--0-0-0-0--0-0-0-0--0-0-0-0-----------|

G|----------------------------------------------|
D|----------------------------------------------|
A|------------------------------2---------------|
E|-0-0-0-0--0-0-0-0--0-0-0-0--0-----------------|
 
Parte 05 de 06

G|----------------------------------------------|
D|----------------------------------------------|
A|--------------------------------2-------------|
E|-0-0-0-0--0-0-0-0--0-0-0-0-0-0----------------|

G|----------------------------------------------|
D|----------------------------------------------|
A|----------------------------------------------|
E|-0-0-0-0--0-0-0-0--3p2--3p2--3p2--3p2--3p2----|

G|----------------------------------------------|
D|----------------------------------------------|
A|----------------------------------------------|
E|-3p2-0--14/-----------------------------------|

Parte 06 de 06 ( tocar 2x )

G|----------------------------------------------|
D|----------------------------------------------|
A|----------------------------------------------|
E|-0-0-0-0--0-0-0-0--0-3/5-0-6p5-3h5------------|

G|----------------------------------------------|
D|----------------------------------------------|
A|----------------------------------------------|
E|-0-0-0-0--0-0-0-0---0-3h5-3h5-----------------|

Primeira parte 

End of passion play, crumbling away...

Parte 01 de 03 ( tocar 4x )

G|----------------------------------------------|
D|----------------------------------------------|
A|----------------------------------------------|
E|-0-0-0-0--0-0-0-0--0-3/5-0-6p5-3h5------------|

G|----------------------------------------------|
D|----------------------------------------------|
A|----------------------------------------------|
E|-0-0-0-0--0-0-0-0---0-3h5-3h5-----------------|

Parte 02 de 03

G|----------------------------------------------|
D|----------------------------------------------|
A|---------------------0h2-0-3p2-0h2------------|
E|-2-2-2-2--2-2-2-2--2--------------------------|

G|----------------------------------------------|
D|----------------------------------------------|
A|----------------------0h2--0h2----------------|
E|-2-2-2-2--2-2-2-2--2--------------------------|

Parte 03 de 03

G|----------------------------------------------|
D|----------------------------------------------|
A|---------------------0h2-0-3p2-0h2------------|
E|-2-2-2-2--2-2-2-2--2--------------------------|

G|----------------------------------------------|
D|----------------------------------------------|
A|----------------------0h2--0h2----------------|
E|-2-2-2-2--2-2-2-2--2--------------------------|

G|----------------------------------------------|
D|----------------------------------------------|
A|-2-2-2-2--2-2-2-2-----------------------------|
E|----------------------------------------------|

Refrão 

Come crawling faster... 

Parte 01 de 02 ( tocar 4x )

G|----------------------------------------------|
D|----------------------------------------------|
A|---------5-7-----2-------2-2-2-2-3--2---------|
E|-0-0-0-0-----0-0---0-2h3----------------------|

G|----------------------------------------------|
D|----------------------------------------------|
A|-2-2-2-2--6-6-6-6-----------------------------|
E|----------------------------------------------|

Parte 02 de 02

G|----------------------------------------------|
D|----------------------------------------------|
A|----------------------------------------------|
E|-0-0-1-1--------------------------------------|

Pós Refrão 

Master of puppets, I'm pulling your strings...

Parte 01 de 04

G|----------------------------------------------|
D|----------------------------------------------|
A|----------------------------------------------|
E|-0-0-0-0--0-0-0-0--2-0-0-0--3-3-3-3--3-3-3-3--|

G|----------------------------------------------|
D|----------------------------------------------|
A|------------------3-3-3-3-3--0-0-0-2-0-0-0----|
E|-3-3-3-3--3-3-3-3-----------------------------|

Parte 02 de 04

G|----------------------------------------------|
D|----------------------------------------------|
A|-0-0-0-0--0-0-0-0--0-0-0-0--0-0-0-0-----------|
E|----------------------------------------------|

G|----------------------------------------------|
D|----------------------------------------------|
A|-5-5-5-5-5-------3-------2-2-2-2--2-2-2-2-----|
E|-----------3-3-3---3-3-3----------------------|

Parte 03 de 04

G|----------------------------------------------|
D|----------------------------------------------|
A|-7-7-7-7--7-7-7-7--5-5-5-5--3-3-3-3--3-3-3-3--|
E|----------------------------------------------|

G|----------------------------------------------|
D|----------------------------------------------|
A|-3-3-3-3--------------------------------------|
E|----------0-0-1-1-----------------------------|

Parte 04 de 04

G|----------------------------------------------|
D|----------------------------------------------|
A|----------------------------3-3-3-3--3-3-3-3--|
E|-0-0-0-0--0-0-0-0--2-0-0-0--------------------|

G|----------------------------------------------|
D|----------------------------------------------|
A|-3-3-2-2--------------------------------------|
E|---------5-5-3-3--0-0-1-1---------------------|

Introdução 02 

Parte 01 de 02

G|----------------------------------------------|
D|----------------------------------------------|
A|----------------------------------------------|
E|-0-0-0-0--0-0-0-0--0-0-0-0--0-0-0-0-----------|

G|----------------------------------------------|
D|----------------------------------------------|
A|------------------------------2---------------|
E|-0-0-0-0--0-0-0-0--0-0-0-0--0-----------------|

Parte 02 de 02

G|----------------------------------------------|
D|----------------------------------------------|
A|----------------------------------------------|
E|-0-0-0-0--0-0-0-0--0-0-0-0-0-0--0-------------|

G|----------------------------------------------|
D|----------------------------------------------|
A|----------------------------------------------|
E|-0-0-0-0--0-0-0-0--3p2--3p2--3p2--3p2--3p2----|

G|----------------------------------------------|
D|----------------------------------------------|
A|----------------------------------------------|
E|-3p2------------------------------------------|

Segunda parte

Needlework the way, never you betray

Parte 01 de 03 ( tocar 4x )

G|----------------------------------------------|
D|----------------------------------------------|
A|----------------------------------------------|
E|-0-0-0-0--0-0-0-0--0-3/5-0-6p5-3h5------------|

G|----------------------------------------------|
D|----------------------------------------------|
A|----------------------------------------------|
E|-0-0-0-0--0-0-0-0---0-3h5-3h5-----------------|

Parte 02 de 03

G|----------------------------------------------|
D|----------------------------------------------|
A|---------------------0h2-0-3p2-0h2------------|
E|-2-2-2-2--2-2-2-2--2--------------------------|

G|----------------------------------------------|
D|----------------------------------------------|
A|----------------------0h2--0h2----------------|
E|-2-2-2-2--2-2-2-2--2--------------------------|

Parte 03 de 03

G|----------------------------------------------|
D|----------------------------------------------|
A|---------------------0h2-0-3p2-0h2------------|
E|-2-2-2-2--2-2-2-2--2--------------------------|

G|----------------------------------------------|
D|----------------------------------------------|
A|----------------------0h2--0h2----------------|
E|-2-2-2-2--2-2-2-2--2--------------------------|

G|----------------------------------------------|
D|----------------------------------------------|
A|-2-2-2-2--2-2-2-2-----------------------------|
E|----------------------------------------------|

Refrão 02

Come crawling faster... 

Parte 01 de 02 ( tocar 4x )

G|----------------------------------------------|
D|----------------------------------------------|
A|---------5-7-----2-------2-2-2-2-3--2---------|
E|-0-0-0-0-----0-0---0-2h3----------------------|

G|----------------------------------------------|
D|----------------------------------------------|
A|-2-2-2-2--6-6-6-6-----------------------------|
E|----------------------------------------------|

Parte 02 de 02

G|----------------------------------------------|
D|----------------------------------------------|
A|----------------------------------------------|
E|-0-0-1-1--------------------------------------|

Pós Refrão 02

Master of puppets, I'm pulling your strings...

Parte 01 de 04

G|----------------------------------------------|
D|----------------------------------------------|
A|----------------------------------------------|
E|-0-0-0-0--0-0-0-0--2-0-0-0--3-3-3-3--3-3-3-3--|

G|----------------------------------------------|
D|----------------------------------------------|
A|------------------3-3-3-3-3--0-0-0-2-0-0-0----|
E|-3-3-3-3--3-3-3-3-----------------------------|

Parte 02 de 04

G|----------------------------------------------|
D|----------------------------------------------|
A|-0-0-0-0--0-0-0-0--0-0-0-0--0-0-0-0-----------|
E|----------------------------------------------|

G|----------------------------------------------|
D|----------------------------------------------|
A|-5-5-5-5-5-------3-------2-2-2-2--2-2-2-2-----|
E|-----------3-3-3---3-3-3----------------------|

Parte 03 de 04

G|----------------------------------------------|
D|----------------------------------------------|
A|-7-7-7-7--7-7-7-7--5-5-5-5--3-3-3-3--3-3-3-3--|
E|----------------------------------------------|

G|----------------------------------------------|
D|----------------------------------------------|
A|-3-3-3-3--------------------------------------|
E|----------0-0-1-1-----------------------------|

Parte 04 de 04

G|----------------------------------------------|
D|----------------------------------------------|
A|----------------------------3-3-3-3--3-3-3-3--|
E|-0-0-0-0--0-0-0-0--2-0-0-0--------------------|

G|----------------------------------------------|
D|----------------------------------------------|
A|-3-3-2-2--------------------------------------|
E|---------5-5-3-3--0-0-1-1---------------------|

Terceira parte ( instrumenntal )

Parte 01 de 09

G|----------------------------------------------|
D|----------------------------------------------|
A|-7--5--3--0--2--6-----------------------------|
E|------------------7---------------------------|

Parte 02 de 09 ( tocar 2x )

G|----------------------------------------------|
D|---9-9----------9-----------------------------|
A|-7-----7-5--5-5-----5--3--3-3-3-3-0-3---------|
E|------------------5---------------------------|

G|----------------------------------------------|
D|----------------------------------------------|
A|------------------6--6-6---6------------------|
E|-5-5-7--7-7-7-5-7--------7--------------------|

Parte 03 de 09 ( tocar 2x )

G|----------------------------------------------|
D|---9-9----------------------------------------|
A|-7-----7-5--5-5-5-5-5/7-5--3--3-3-3-3-2-3-----|
E|------------------------------------------5---|

G|----------------------------------------------|
D|----------------------------------------------|
A|----------------6--6-6---6--------------------|
E|-5-7--7-7-7-5-7--------7----------------------|

Parte 04 de 09 ( tocar 2x )

G|----------------------------------------------|
D|---9-9----------9-----------------------------|
A|-7-----7-5--5-5-----5--3--3-3-3-3-0-3---------|
E|------------------5---------------------------|

G|----------------------------------------------|
D|----------------------------------------------|
A|------------------6--6-6---6------------------|
E|-5-5-7--7-7-7-5-7--------7--------------------|

Parte 05 de 09 ( tocar 2x )

G|----------------------------------------------|
D|----------------------------------------------|
A|---------5-5-5-5--5-5-5-5--3-3-3-3--3-3-3-3---|
E|-0-0-0-0--------------------------------------|

G|----------------------------------------------|
D|----------------------------------------------|
A|-0-0-0-0--2-2-2-2--6-6-6-6--------------------|
E|----------------------------------------------|

Parte 06 de 09

G|----------------------------------------------|
D|----------------------------------------------|
A|----------------------------------------------|
E|-0-0-0-0--0-0-0-0--0-0-0-0--0-0-0-0-----------|

Master, Master, where’s the dreams that...

Parte 07 de 09 ( tocar 4x )

G|----------------------------------------------|
D|----------------------------------------------|
A|----------------------------------------------|
E|-2-2-2-2-2-2-2-3-3--2-2-2-2-2-2-2-3-----------|

Parte 08 de 09

G|----------------------------------------------|
D|----------------------------------------------|
A|----------------------------------------------|
E|-2-2-2-2-2-2-2---3--2-2-2-2-2-2-2-3-----------|

G|----------------------------------------------|
D|----------------------------------------------|
A|----------------------------------------------|
E|-2-2-2-2-2-2-2--3--2-2-2-2-2-2-2-2------------|

Parte 09 de 09

G|----------------------------------------------|
D|----------------------------------------------|
A|----------------------------------------------|
E|-3-3-3-3--3-3-3-3--3-3-3-3--3-3-3-3-----------|

G|----------------------------------------------|
D|----------------------------------------------|
A|----------------------------------------------|
E|-2-2-2-2--2-2-2-2--1-1-1-1--1-1-1-1-----------|

Solo de Guitarra

Parte 01 de 06 ( tocar 4x )

G|----------------------------------------------|
D|----------------------------------------------|
A|----------------------------------------------|
E|-0-0-0-0--0-0-0-0--0-3/5-0-6p5-3h5------------|

G|----------------------------------------------|
D|----------------------------------------------|
A|----------------------------------------------|
E|-0-0-0-0--0-0-0-0---0-3h5-3h5-----------------|

Parte 02 de 06 ( tocar 2x )

G|----------------------------------------------|
D|----------------------------------------------|
A|---------------------0h2-0-3p2-0h2------------|
E|-2-2-2-2--2-2-2-2--2--------------------------|

G|----------------------------------------------|
D|----------------------------------------------|
A|----------------------0h2--0h2----------------|
E|-2-2-2-2--2-2-2-2--2--------------------------|

Parte 03 de 06

G|----------------------------------------------|
D|----------------------------------------------|
A|-2-2-2-2--2-2-2-2-----------------------------|
E|----------------------------------------------|

Parte 04 de 06 ( tocar 4x )

G|----------------------------------------------|
D|----------------------------------------------|
A|---------------------------------2------------|
E|-0-0-1p0--0-1p0--0-1p0--0-1p0--0--------------|

Parte 05 de 06 ( tocar 3x )

G|----------------------------------------------|
D|---------------------------------2-4-5--------|
A|---------------------------2-3-5--------------|
E|-0-0-0-0--0-0-0-0--0-2-3-5--------------------|

G|----------------------------------------------|
D|----------------------------------------------|
A|-3-3-3-3-3-0-3-2-3-5-3-2----------------------|
E|-------------------------5-3------------------|

Parte 06 de 06

G|----------------------------------------------|
D|---------------------------------2-4-5--------|
A|---------------------------2-3-5--------------|
E|-0-0-0-0--0-0-0-0--0-2-3-5--------------------|

G|----------------------------------------------|
D|----------------------------------------------|
A|-3-0-0-3-2-3-5-3-2-------0-0-3-2-3-5-3-2------|
E|-------------------5-3-0-----------------5-3--|

G|----------------------------------------------|
D|----------------------------------------------|
A|----------------------------------------------|
E|-0--------------------------------------------|

Introdução 03

Parte 01

G|----------------------------------------------|
D|----------------------------------------------|
A|----------------------------------------------|
E|-3p2--3p2--3p2--0--3p2-3p2-3p2-3p2-3p2-3p2----|

Quarta parte

Hell is worth all that, natural habitat

Parte 01 de 03 ( tocar 4x )

G|----------------------------------------------|
D|----------------------------------------------|
A|----------------------------------------------|
E|-0-0-0-0--0-0-0-0--0-3/5-0-6p5-3h5------------|

G|----------------------------------------------|
D|----------------------------------------------|
A|----------------------------------------------|
E|-0-0-0-0--0-0-0-0---0-3h5-3h5-----------------|

Parte 02 de 03

G|----------------------------------------------|
D|----------------------------------------------|
A|---------------------0h2-0-3p2-0h2------------|
E|-2-2-2-2--2-2-2-2--2--------------------------|

G|----------------------------------------------|
D|----------------------------------------------|
A|----------------------0h2--0h2----------------|
E|-2-2-2-2--2-2-2-2--2--------------------------|

Parte 03 de 03

G|----------------------------------------------|
D|----------------------------------------------|
A|---------------------0h2-0-3p2-0h2------------|
E|-2-2-2-2--2-2-2-2--2--------------------------|

G|----------------------------------------------|
D|----------------------------------------------|
A|----------------------0h2--0h2----------------|
E|-2-2-2-2--2-2-2-2--2--------------------------|

G|----------------------------------------------|
D|----------------------------------------------|
A|-2-2-2-2--2-2-2-2-----------------------------|
E|----------------------------------------------|

Refrão 03

Come crawling faster... 

Parte 01 de 02 ( tocar 4x )

G|----------------------------------------------|
D|----------------------------------------------|
A|---------5-7-----2-------2-2-2-2-3--2---------|
E|-0-0-0-0-----0-0---0-2h3----------------------|

G|----------------------------------------------|
D|----------------------------------------------|
A|-2-2-2-2--6-6-6-6-----------------------------|
E|----------------------------------------------|

Parte 02 de 02

G|----------------------------------------------|
D|----------------------------------------------|
A|----------------------------------------------|
E|-0-0-1-1--------------------------------------|

Pós Refrão 03

Master of puppets, I'm pulling your strings...

Parte 01 de 04

G|----------------------------------------------|
D|----------------------------------------------|
A|----------------------------------------------|
E|-0-0-0-0--0-0-0-0--2-0-0-0--3-3-3-3--3-3-3-3--|

G|----------------------------------------------|
D|----------------------------------------------|
A|------------------3-3-3-3-3--0-0-0-2-0-0-0----|
E|-3-3-3-3--3-3-3-3-----------------------------|

Parte 02 de 04

G|----------------------------------------------|
D|----------------------------------------------|
A|-0-0-0-0--0-0-0-0--0-0-0-0--0-0-0-0-----------|
E|----------------------------------------------|

G|----------------------------------------------|
D|----------------------------------------------|
A|-5-5-5-5-5-------3-------2-2-2-2--2-2-2-2-----|
E|-----------3-3-3---3-3-3----------------------|

Parte 03 de 04

G|----------------------------------------------|
D|----------------------------------------------|
A|-7-7-7-7--7-7-7-7--5-5-5-5--3-3-3-3--3-3-3-3--|
E|----------------------------------------------|

G|----------------------------------------------|
D|----------------------------------------------|
A|-3-3-3-3--------------------------------------|
E|----------0-0-1-1-----------------------------|

Parte 04 de 04

G|----------------------------------------------|
D|----------------------------------------------|
A|----------------------------3-3-3-3--3-3-3-3--|
E|-0-0-0-0--0-0-0-0--2-0-0-0--------------------|

G|----------------------------------------------|
D|----------------------------------------------|
A|-3-3-2-2--------------------------------------|
E|---------5-5-3-3--0-0-1-1---------------------|

Introdução 04 Final 

Parte 01 de 02 ( tocar 4x )

G|----------------------------------------------|
D|----------------------------------------------|
A|----------------------------------------------|
E|-0-0-0-0--0-0-0-0--0-3/5-0-6p5-3h5------------|

G|----------------------------------------------|
D|----------------------------------------------|
A|----------------------------------------------|
E|-0-0-0-0--0-0-0-0---0-3h5-3h5-----------------|

Parte 02 de 02

G|----------------------------------------------|
D|---------------------------------14-----------|
A|-------------------2/7~~---7/14-----14--------|
E|-3p2--3p2--3p2--0--------0-------------0------|
  • 1
  • 2
  • 3
  • 4
  • 5
  • 6
  • 7
  • 8
  • 9
  • 10
  • 11
  • 12
    Composição: Cliff Burton / James Hetfield / Kirk Hammett / Lars UlrichColaboração e revisão:
    • Reginaldo

    0 comentários

      mostrar mais comentários
      00:00 / 00:00
      outros vídeos desta música
      repetirqualidadeautomática
      • automática
      Outro vídeos desta música
        Capítulos
        • Tocando a música
        • Dicas Iniciais / Equipamentos
        • Introdução - Parte 1 de 6
        • Introdução - Parte 2 de 6
        • Introdução - Parte 3 de 6
        • Introdução - Parte 4 de 6
        • Introdução - Parte 5 de 6
        • Introdução - Parte 6 de 6
        • Primeira Parte - Parte 1 de 3
        • Primeira Parte - Parte 2 de 3
        • Primeira Parte - Parte 3 de 3
        • Refrão - Parte 1 de 2
        • Refrão - Parte 2 de 2
        • Pós Refrão - Parte 1 de 4
        • Pós Refrão - Parte 2 de 4
        • Pós Refrão - Parte 3 de 4
        • Pós Refrão - Parte 4 de 4
        • Introdução 2 - Parte 1 de 2
        • Introdução 2 - Parte 2 de 2
        • Terceira Parte - Parte 1 de 9
        • Terceira Parte - Parte 2 de 9
        • Terceira Parte - Parte 3 de 9
        • Terceira Parte - Parte 4 de 9
        • Terceira Parte - Parte 5 de 9
        • Terceira Parte - Parte 6 de 9
        • Terceira Parte - Parte 7 de 9
        • Terceira Parte - Parte 8 de 9
        • Terceira Parte - Parte 9 de 9
        • Solo de Guitarra - Parte 1 de 6
        • Solo de Guitarra - Parte 2 de 6
        • Solo de Guitarra - Parte 3 de 6
        • Solo de Guitarra - Parte 4 de 6
        • Solo de Guitarra - Parte 5 de 6
        • Solo de Guitarra - Parte 6 de 6
        • Introdução 3
        • Final - Parte 1 de 2
        • Final - Parte 2 de 2
        • Encerramento
        • Ficha Técnica
        00:00 / 00:00
        automática
        • automática
        fecharplay/pause subir/descer velocidade
        fechar
        OK
        Feedback