Cifra Club

Aprenda

Metal Militia

Metallica

Cifra: Principal (violão e guitarra)
tom: F
  Intro
||-----------------------------------------------------------------------------||
||-----------------------------------------------------------------------------||
||-----------------------------------------------------------------------------||
||-----------------------------------------------------------------------------||
||-3/8~~~-----8\7---------------------------------------------------5--7-------||
||-1/6~~~-----6\5---0--0--0--0--0--0--0--0--0--0--0--0--0--0--0--0--3--5-------||

-------------------------------------------------------------------------------||
-------------------------------------------------------------------------------||
-------------------------------------------------------------------------------||
-------------------------------------------------------------------------------||
------------------------------------------------8--7---------------------------||
0--0--0--0--0--0--0--0--0--0--0--0--0--0--0--0--6--5-----0--0--0--0--0--0------||

------------------------------------------------------------------------||
------------------------------------------------------------------------||
------------------------------------------------------------------------||
------------------------------------------------------------------------||
------------------------------5--7-----------------------------8--7--5--||
0--0--0--0--0--0--0--0--0--0--3--5-----0--0--0--0--0--0--0--0--6--5--3--||

Before Main Riff
||----------------------------------------||
||----------------------------------------||
||----------------------------------------||
||----------------------------------------||
||-8--7--5-----8--7--5-----7--------------||
||-6--5--3-----6--5--3-----5--------------||

  Repeat a few times.(3x) (Verso)   Not sure about this part.
||----------------------------||------------------------||
||----------------------------||------------------------||
||*--------------------------*||---3--------------------||
||*-----7-----5--2--1p0------*||---1---5---7------------||
||---0-----0------------------||-------3---5---x--x--9--||
||----------------------------||---------------x--x--7--||

Refrão
||----------------------------------------------------------------------------||
||----------------------------------------------------------------------------||
||----------------------------------------------------------------------------||
||--------------------------------------------------5--7----------------------||
||--0--0--0--0--0--0--0--0--0--0--0--0--0--0--0--0--3--5--0--0--0--0--0--0--0-||
||----------------------------------------------------------------------------||

------------------------------------------------------------------------------
------------------------------------------------------------------------------
------------------------------------------------------------------------------
----------------------------8--7----------------------------------------------
-0--0--0--0--0--0--0--0--0--6--5--0--0--0--0--0--0--0--0--0--0--0--0--0--0--0-
------------------------------------------------------------------------------

------------------------------------------------------------------------------||
------------------------------------------------------------------------------||
------------------------------------------------------------------------------||
----5--7----------------------------------------------------------------------||
-0--3--5--0--0--0--0--0--0--0--0--0--0--0--0--0--0--0--0----------------------||
------------------------------------------------------------------------------||

Depois do refrão

||-----------------------||
||-----------------------||
||-----------------------||
||--8--7--5--8--7--5--7--||
||--6--5--3--6--5--3--5--||
||-----------------------||
Composição de Dave Mustaine / James Hetfield / Lars Ulrich
Colaboração e revisão:
  • Flavio Villela
  • Rafael Gumiela
29.172 exibições
    • ½ Tom
    • A
    • Bb
    • B
    • C
    • Db
    • D
    • Eb
    • E
    • F
    • F#
    • G
    • Ab
  • Adicionar à lista

    0 comentários

    Ver todos os comentários

    Conseguiu tocar?

    9 Tocaram 0 Ainda não

    Grave um vídeo tocando Metal Militia e nos envie!

    00:00 / 00:00
    outros vídeos desta música
    repetir qualidade Automático
    Outros vídeos desta música
    00:00 / 00:00
    Automático

    Cifra Club Pro

    Aproveite o Cifra Club com benefícios exclusivos e sem anúncios
    Cifra Club Pro
    Aproveite o Cifra Club com benefícios exclusivos e sem anúncios
    OK