Cifra Club

My Friend Of Misery

Metallica

Cifra: Principal (violão e guitarra)
exibições 56.338
Tom: A
h - hammer-on
p - pull-off
b - bend
pb - pre-bend
r - bend release (if no number after the r, then
release immediately)
/ - slide into or out of (from/to "nowhere")
s - legato slide
S - shift slide 
 - natural harmonic
n] - artificial harmonic
n(n) - tapped harmonic
~ - vibrato
tr - trill
T - tap
TP - trem. picking
PM - palm muting
n/ - tremolo bar dip; n = amount to dip
n - tremolo bar down
n/ - tremolo bar up
/n - tremolo bar inverted dip
= - hold bend; also acts as connecting device for
hammers/pulls
<> - volume swell (louder/softer)

Standard tuning - E A D G B E
  
|----------------------------------|------------------------------------|
|----------------------------------|------------------------------------|
|-2-2---------------------------(2)|-2-------------------------------(2)|
|-3-3---------------------------(3)|-2-------------------------------(2)|
|-0-0---------------------------(0)|-0-------------------------------(0)|
|----------------------------------|------------------------------------|
|                                  |                  
                 |
|----------------------------------|------------------------------------|
|----------------------------------|------------------------------------|
|-2-2---------------------------(2)|-2-------------------------------(2)|
|-3-3---------------------------(3)|-2-------------------------------(2)|
|-0-0---------------------------(0)|-0-------------------------------(0)|
|----------------------------------|------------------------------------|


|----------------------------------|------------------------------------|
|----------------------------------|------------------------------------|
|-2-2---------------------------(2)|-2-------------------------------(2)|
|-3-3---------------------------(3)|-2-------------------------------(2)|
|-0-0---------------------------(0)|-0-------------------------------(0)|
|----------------------------------|------------------------------------|
|       PM                         |     PM           
                 |
|----------------------------------|------------------------------------|
|----------------------------------|------------------------------------|
|----------------------------------|------------------------------------|
|-----3---3------------------------|----2---2---------------------------|
|-------5---0----------------------|(0)---3---0-------------------------|
|----------------------------------|------------------------------------|


|----------------------------------|------------------------------------|
|----------------------------------|------------------------------------|
|-2-2---------------------------(2)|-2-------------------------------(2)|
|-3-3---------------------------(3)|-2-------------------------------(2)|
|-0-0---------------------------(0)|-0-------------------------------(0)|
|----------------------------------|------------------------------------|
|       PM                         |     PM           
                 |
|----------------------------------|------------------------------------|
|----------------------------------|------------------------------------|
|----------------------------------|------------------------------------|
|-----3---3------------------------|----2---2---------------------------|
|--(0)--5---0----------------------|(0)---3---0-------------------------|
|----------------------------------|------------------------------------|


|----------------------------------|------------------------------------|
|----------------------------------|------------------------------------|
|-2-2---------------------------(2)|-2-------------------------------(2)|
|-3-3---------------------------(3)|-2-------------------------------(2)|
|-0-0---------------------------(0)|-0-------------------------------(0)|
|----------------------------------|------------------------------------|
|       PM          PM             |      PM         
PM     ~~~~~~~~~~ |
|----------------------------------|------------------------------------|
|----------------------------------|------------------------------------|
|----------------------------------|------------------------------------|
|-----3---3-------3---3------------|----2---2-------2---2-5/7---7---7-7-|
|--(0)--5---0-------5---0----------|(0)---3---0-------3-----------------|
|----------------------------------|------------------------------------|


|----------------------------------|------------------------------------|
|----------------------------------|------------------------------------|
|-2-2---------------------------(2)|-2-------------------------------(2)|
|-3-3---------------------------(3)|-2-------------------------------(2)|
|-0-0---------------------------(0)|-0-------------------------------(0)|
|----------------------------------|------------------------------------|
|       PM          PM             |      PM         
PM    ~~~~~~~~~~  |
|----------------------------------|------------------------------------|
|----------------------------------|------------------------------------|
|----------------------------------|------------------------------------|
|-----3---3-------3---3------------|----2---2-------2---2-5/7---7---7-7-|
|-------5---0-------5---0----------|(0)---3---0-------3-----------------|
|----------------------------------|------------------------------------|


        PM          PM                    PM         
PM    ~~~~~~~~~~
|------------------------------------|----------------------------------|
|------------------------------------|----------------------------------|
|------------------------------------|----------------------------------|
|-----3---3-------3---3-----------5--|--2---2-------2---2-5/7---7---7-7-|
|-------5---0-------5---0-------3----|----3---0-------3-----------------|
|------------------------------------|----------------------------------|
        PM          PM                    PM         
PM    ~~~~~~~~~~
|------------------------------------|----------------------------------|
|------------------------------------|----------------------------------|
|------------------------------------|----------------------------------|
|-----3---3-------3---3-----------5--|--2---2-------2---2-5/7---7---7-7-|
|-------5---0-------5---0-------3----|----3---0-------3-----------------|
|------------------------------------|----------------------------------|


|------------------|----------------|
|------------------|----------------|
|--------------2---|-2--------------|
|--------------2---|-2--------------|
|--------------0---|-0--------------|
|------------------|----------------|
| PM..   PM..      | PM..  PM       | 
|------------------|----------------|
|------------------|----------------|
|------------------|----------------|
|-----5------------|-----5---5------|
|-0-3-------5----7-|-0-3-----5h7-7-|
|-------0-3---/5---|-------0--------|


 PM..                            PM..
|-------------------------------|---------------------------------|
|-------------------------------|---------------------------------|
|-------------------2-2---2-4-4-|-------------------2-2-----------|
|-------------2-----2-2---2-4-4-|-------------2-----2-2-3-4-2---2-|
|-4-4-0-2-3-4-2-----0-0---0-----|-4-4-0-2-3-4-2-----0-0-1-2-2---2-|
|-2-2---------0-----------------|-2-2---------0-------------0---0-|
|PM..                           |PM..                 
           |
|-------------------------------|---------------------------------|
|-------------------------------|---------------------------------|
|-------------------2-2---2-4-4-|-------------------2-2-----------|
|-------------2-----2-2---2-4-4-|-------------2-----2-2-3-4-2---2-|
|-4-4-0-2-3-4-2-----0-0---0-----|-4-4-0-2-3-4-2-----0-0-1-2-2---2-|
|-2-2---------0-----------------|-2-2---------0-------------0---0-|


    PM...           PM...
|------------------------------|
|------------------------------|
|------------------------------|
|-3-------2-----2-2-------2----|
|-2-------2-----3-3-------2----|
|-0-0-0-0-0-----0-0-0-0-0-0----|





     ~~~~~~ ~~~~~ ~~~ ~~~~~~~~~~~~~ ~~~~~ ~~~~~ ~~~ ~~~~~~~~~
|---------------------------|---------------------------------|
|---------------<5>---------|-----<5>-------------------------|
|---------<5>---------------|-----------<7>---<5>-<7>---------|
|---<7>-------------<7>-----|---------------------------------|
|---------------------------|---------------------------------|
|---------------------------|---------------------------------|


     ~~~~~~ ~~~~~ ~~~ ~~~~~~~~~~~~~ ~~~~~ ~~~~~ ~~~ ~~~~~~~~~
|---------------------------|---------------------------------|
|-pb<10>-r<10>--<8>-<5>-----|---pb<10>-r<10>--<8>-------------|
|---------------------------|---------------------<7>---------|
|---------------------------|---------------------------------|
|---------------------------|---------------------------------|
|---------------------------|---------------------------------|


 Both guitars played with chorus up high.  Allow to ring throughout.
|---------------0-----0-------------|-----------------0---------------|
|-----------3---3b5====r3-----------|-----------------1---------------|
|---------2---------------2---------|-----------0h2-2-----------------|
|-----2h3---------------------------|-----0h2-2-----------------------|
|-0---------------------------------|-0-------------------------------|
|-----------------------------------|---------------------------------|
|                                   |                 
               |
|-5-5-5-5-5-5-5-5-5-5-5-5-5-5-5-5-5-|-5-5-5-5-5-5-5-5-5-5-5-5-5-5-5-5-|
|-6-6-6-6-6-6-6-6-6-6-6-6-6-6-6-6-6-|-5-5-5-5-5-5-5-5-5-5-5-5-5-5-5-5-|
|-----------------------------------|---------------------------------|
|-----------------------------------|---------------------------------|
|-----------------------------------|---------------------------------|
|-----------------------------------|---------------------------------|










 Played with backing riff.
|----------------------|-------------------|-----------------------|
|-/10------11p10-11b13=|=====11----r11--10-|-10h11-10------10------|
|----------------------|-------------------|-----------------------|
|----------------------|-------------------|-----------------------|
|----------------------|-------------------|-----------------------|
|----------------------|-------------------|-----------------------|
|                      |                   |          
            |
|----------------------|-------------------|-----------------------|
|----------------------|-------------------|-----------------------|
|-/10------12p10-12b14=|=====12----r10---9-|---9h12-9-------9------|
|----------------------|-------------------|-----------------------|
|----------------------|-------------------|-----------------------|
|----------------------|-------------------|-----------------------|




|--------------------------------|---------------------------|
|-10h11p108h10p86h8p6-~-~-(6)-|-/10-----------11p10-11-b--|
|--------------------------------|---------------------------|
|--------------------------------|---------------------------|
|--------------------------------|---------------------------|
|--------------------------------|---------------------------|
|                                |                    
      |
|--------------------------------|---------------------------|
|--------------------------------|---------------------------|
|--9h10p-97h-9p75h7p5-~-~-(5)-|-/10-----------12p10-12-b--|
|--------------------------------|---------------------------|
|--------------------------------|---------------------------|
|--------------------------------|---------------------------|


|--------------------------------|------------------------------------|

|-(11)---11p10-11-b--11-rb---10--|--10h11-10-~-~-10h11p108-10--8h10p-|
|--------------------------------|------------------------------------|

|--------------------------------|------------------------------------|

|--------------------------------|------------------------------------|

|--------------------------------|------------------------------------|
|                                |                    
               |
|--------------------------------|------------------------------------|

|--------------------------------|------------------------------------|
|-(12)---12p10-12-b--12-rb---10--|---9h10--9-~-~--9h10p-97--9--7h9-p-|
|--------------------------------|------------------------------------|

|--------------------------------|------------------------------------|

|--------------------------------|------------------------------------|


|---------------------------|-13p10----10-13--13p10----10-13--13p10----10-|
|-86-8--6h8p65-6p51h5-1--|-------10--------------10--------------10----|
|---------------------------|---------------------------------------------|
|---------------------------|---------------------------------------------|
|---------------------------|---------------------------------------------|
|---------------------------|---------------------------------------------|
|                           |                         
                   |
|---------------------------|-13p10----10-13--13p10----10-13--13p10----10-|
|---------------------------|-------10--------------10--------------10----|
|-75-7--5h7p54-5p42h4-2--|---------------------------------------------|
|---------------------------|---------------------------------------------|
|---------------------------|---------------------------------------------|
|---------------------------|---------------------------------------------|


|-13p10----10-13p10-13p10----10-13p10-13p10----10-|
|-------10----------------10----------------10----|
|-------------------------------------------------|
|-------------------------------------------------|
|-------------------------------------------------|
|-------------------------------------------------|


|-12p8----8-12--12p8----8-12--12p8----8-|-12p8----8-12p8-----------------------|
|------10------------10------------10---|------10--------10-10-10h11p10p8-10-~-|
|---------------------------------------|--------------------------------------|
|---------------------------------------|--------------------------------------|
|---------------------------------------|--------------------------------------|
|---------------------------------------|--------------------------------------|


|-13p10----10-13--13p10----10-13--13p10----10-|
|-------10--------------10--------------10----|
|---------------------------------------------|
|---------------------------------------------|
|---------------------------------------------|
|---------------------------------------------|


|-13p10----10-13p10-13p10----10-13p10-13--13/--|
|-------10----------------10-------------------|
|----------------------------------------------|
|----------------------------------------------|
|----------------------------------------------|
|----------------------------------------------|


|-20p17----17-20--20p17----17-20--20p17----17---|-20/22--22b24--22b24-~-~---|
|-------17--------------17--------------17------|---------------------------|
|-----------------------------------------------|---------------------------|
|-----------------------------------------------|---------------------------|
|-----------------------------------------------|---------------------------|
|-----------------------------------------------|---------------------------|
Acordes para:

    0 comentários

    mostrar mais comentários

    Conseguiu tocar?

    3 tocaram 0 ainda não

    Grave um vídeo tocando My Friend Of Misery e mande pra gente!

    00:00 / 00:00
    outros vídeos desta música
    repetir qualidade Automático
    Outros vídeos desta música
    00:00 / 00:00
    Automático
    OK